Oops, an error
Loading. Please wait.

Where Ive Been tab

version 1
version 1

Whole song

10,940 views 48 this week
1 commentread comment
1 2 3 4 5
x 7
add to favorites
×
Save as Personal and add changes to this tab that will be seen only by you. Learn more ›
×
You can save this tab as Personal to edit and correct it or add notes. All changes will be seen only by you. Learn more »
launch autoscroll
font size
0
reset
how to read this tab
guitar tuner
edit
Autoscroll
slow
fast
+/-
esc
set tempo
stop
Where I've Been - Rival Sons
Tabbed by: Theo Wildgoose
E-mail: twildgoose@gmail.com
Tuning: Open G (DGDGBD)

You'll need the willpower to detune your guitar and a slide if you have one handy!

Scott uses a funky slide which can fold away for finger picking. It's called a 
Jetslide I believe.

Tabbed from this live version, so may differ from the album:
https://www.youtube.com/watch?v=DA1XA5lvZyE

[Intro] (fig.A)
D|------9------------------------0-------------------------------------------|
B|---10--10-----8h10-8-------0h1---1p0---------------------------------------|
G|--------------9----9-----------------0h2p0---0--------------=--------------|
D|-------------------------------------------2-------------------------------|
G|-8--------9-----------0----------------------------------------------------|
D|---------------------------------------------------------------------------|

D|------9----------------------0---------------------------------------------|
B|---10---10----8h10-8-----0h1---1p0-----0-----------------------------------|
G|--------------9----9---------------2p0-------------------------------------|
D|---------------------------------------------------------------------------|
B|8----------9---------0-----------------------------------------------------|
G|---------------------------------------------------------------------------|

D|------9------------------------9--------------9---------0------------------|
B|---10---10----8h10-8-----10------10------10-----10------0------------------|
G|--------------9----9--------10------10------9------9----0------------------|
D|--------------------------------------------------------0------------------|
B|-8--------9----------10----------------9-----------------------------------|
G|---------------------------------------------------------------------------|

[Verse 1]
 She said since we've been together
D|----------------------/5---5------0-0--0----0-0---------------------|
B|----------------------/5-----5----0-0--0h1--1-0---------------------|
G|----------------------/5-------5--0-0--0----0-0---------------------|
D|----------------------/5----------0-0--0h2--2-0---------------------|
G|--------------------------------------------------------------------|
D|--------------------------------------------------------------------|

   I tried not to keep secrets
D|-0------------------/10--10-----/5--5-------------------------------|
B|----0---------------/10-----10--/5----3/5---------------------------|
G|------0-------------/10---------/5--------5-------------------------|
D|--------------------------------------------------------------------|
G|--------------------------------------------------------------------|
D|--------------------------------------------------------------------|

  I was to lost then                     I don't like to talk about it
D|--------5-5----0-------0-------------|-------------/10-10-----5---------------|
B|--------5---5--0---0h1--1p0----------|-------------/10---10---5--/8-----------|
G|--------5------0------------0h2p0---0|------------------------5-----9---------|
D|---------------0------------------2--|--------------------------------10/9\10-|
G|-------------------------------------|----------------------------------------|
D|-------------------------------------|----------------------------------------|

  See I needed money                         Cause the habit wasn't cheap
D|-------------5-5---0-----0---------------|-----------------/10--10-----5-5-5-5-----|
B|-------------5---5-0-0h1---1p0-----------|-----------------/10-----10--5-6-6p5-----|
G|-------------5-----0-----------0h2p0---0-|-----------------------------5-5-5-5-----|
D|-------------------0-----------------2---|-----------------------------------------|
G|-----------------------------------------|-----------------------------------------|
D|-----------------------------------------|-----------------------------------------|

  I gave them my body                   Now my memory won't let me sleep
D|------------/10--10-----/5-5---------|--0-----------------0--------------------|
B|------------/10-----10--/5---3/5-----|--0-------------0h1---1p0----------------|
G|------------/10---------/5-------5---|--0-----------------------0h2p0---0------|
D|-----------------------------------5-|--0-----------------------------2--------|
G|-------------------------------------|-----------------------------------/4-0--|
D|-------------------------------------|-----------------------------------------|

[Pre chorus] - Play intro

Now I lay beside you
And when you touch me
I feel I don't deserve you
That's when you remind me

[Chorus]
  She says how could you love me            When you know where I've been
D|---------------------------------0-0-0-0-|-------7----------0---------------------|
B|---------------------------8-----0-1-1-0-|----/7---7----0h1---1p0-----------------|
G|-----------------------/9----9---0-0-0-0-|----/7---------------------0h2p0---0----|
D|-----------------------/10-------0-2-2-0-|---------------------------------2------|
G|-----------------------------------------|-----------------------------------/4-0-|
D|-----------------------------------------|----------------------------------------|

  How could you love me                      When you know where I've been
D|----------------10---10--------/5-5-------|-0---------0--------0--------------------|
B|---------------/10------10-----/5--3/5----|-0---------0----0h1---1p0----------------|
G|---------------------------10--/5------5--|-0---------0--------------0h2p0---0------|
D|------------------------------------------|-0---------0--------------------2--------|
G|-0--4----7--------------------------------|----------------------------------/4-0---|
D|------------------------------------------|-----------------------------------------|
  
  How could you love me    When you know where I've been
D|---------------5-5----0-|-----------------------------0-------------------------|
B|---------------5--5---0-|-----------------------------0-------------------------|
G|---------------5----5-0-|-----------------------------0-------------------------|
D|----------------------0-|-----------------------------0-------------------------|
G|-0---4--7---------------|-----------------------------0-------------------------|
D|------------------------|-----------------------------0-------------------------|

D|------9------------------------0-----------------------9-----------0---------|
B|---10--10-----8h10-8-------0h1---1p0----------------10---10--8h10--0---------|
G|--------------9----9-----------------0h2p0---0---------------9-----0---------|
D|-------------------------------------------2-----------------------0---------|
G|-8--------9-----------0---------------------------8---------9----------------|
D|-----------------------------------------------------------------------------|

Repeat for verse + chorus 2

[Solo]
D|-----------10---------------------10---------------------------|
B|-------/12----12-10----------/12-----12-10---------------------|
G|-/10----------------12-10-9-----------------12-10-7---5h7p5 4--|
D|---------------------------------------------------------------|
G|---------------------------------------------------------------|
D|---------------------------------------------------------------|

e|---------------------------------------------------------------|
B|---------------------------------------------------------------|
G|--0h2p0----0-----0-2-4/5-4-5/7--5-7/9---10~--------------------|
D|---------4---2-4-----------------------------------------------|
A|---------------------------------------------------------------|
E|---------------------------------------------------------------|

D|-----------10---------------------10---------------------------|
B|-------/12----12-10----------/12-----12-10---------------------|
G|--------------------12-10-9-----------------12-10-7------------|
D|---------------------------------------------------------------|
G|---------------------------------------------------------------|
D|---------------------------------------------------------------|

D|-----------------10--12-/14--15--------15-----15------15-------------|
B|---------10--12------------------17b18----(18)---(18)-----17r15-15h17|
G|-9--/12--------------------------------------------------------------|
D|---------------------------------------------------------------------|
G|---------------------------------------------------------------------|
D|---------------------------------------------------------------------|

D|-------15-----15------------------------------------------12-10^-----|
B|-17b18---(18)----(18)-17r15-13h15-12---13-12-10-----10-12---------12-|
G|------------------------------------------------12-------------------|
D|---------------------------------------------------------------------|
G|---------------------------------------------------------------------|
D|---------------------------------------------------------------------|

************************************

| h    Hammer-on
| p    Pull-off
| /    Slide up
| \    Slide down
| ~    Vibrato
| (n)  Ghost note
| r    Release
| b    Bend 

************************************

            
            
Suggest correction
Creating personal tab
Creating personal tab
You can edit any tab online and save it as your Personal.

You can edit, replace or remove any tab part or add personal notes – all changes will be seen only by you.

Personal tabs can be accessed anytime from any device, even offline.
Learn more »
comments
print report bad tab
1 comment total.
0 reply
FHSO 10 Mar 25, 2016 06:42 PM

thanks!!

guest
You may want to rate the tab now too:
select rating
Wanna post a correction for this tab? Suggest correction