Oops, an error
Loading. Please wait.

Hey Hey Hey bass

679 views 6 this week
1 commentread comment
1 2 3 4 5
3 more votes to show rating
add to favorites
×
Save as Personal and add changes to this tab that will be seen only by you. Learn more ›
×
You can save this tab as Personal to edit and correct it or add notes. All changes will be seen only by you. Learn more »
launch autoscroll
font size
0
reset
guitar tuner
edit
Autoscroll
slow
fast
+/-
esc
set tempo
stop
Author
Difficulty
-------------------------------------------------------------------------------
			     Hey Hey Hey - Riverboat Gamblers
-------------------------------------------------------------------------------

Tabbed By : Bernie93
e-mail: dylanob93@hotmail.com

Tuning: standard

this is another simple song
check the song for timing


Intro x3
G|--------------------|
D|--------------------|
A|-----------------2--|
E|-222222222222222----|

Intro variation x1
G|----------------------|
D|----------------------|
A|----------------2-----|
E|-22222222--2--0----0--|

first part of the verse has no bass, but when it comes in it goes like this:

pre-verse x1
G|-------------|-------------------------------------------------------------------|
D|-------------|-------------------------------------------------------------------|
A|-------2----|--------------------------------------------------------------------|
E|--2--0----0---|------------------------------------------------------------------|

verse x3                 on 4th time finish off with
G|---------------------|-----------------------|
D|---------------------|-----------------------|
A|----------2222222----|-----------------2-----|
E|-22222222------------|--22222222--2--0----0--|

pre-chorus x1                            2nd time through do this"
G|--------------------------------------|------------------|
D|--000000--222222----------------------|--000000--222222--|
A|--------------------------------------|------------------|
E|-------------------2222222222222222---|------------------|

chorus x3             on 4th time through play the A4 for longer
G|-------------------|---------------------------|
D|--44--11--00-------|--44--11--00---------------|
A|--------------44---|--------------44444444444--|
E|-------------------|---------------------------|

verse with no bass
verse x3 (+ extra finish)
pre chorus x1 (+ extra finish)
(verse x3 + extra finish) x2

i apologize if that last bit was confuising.
Pretty much all you do is play the verse thing including the extra bit at the end twice through.

Hope this was ok
cheers
bernie

            
            
Suggest correction
Creating personal tab
Creating personal tab
You can edit any tab online and save it as your Personal.

You can edit, replace or remove any tab part or add personal notes – all changes will be seen only by you.

Personal tabs can be accessed anytime from any device, even offline.
Learn more »
Give kudos to tab author, rate the tab!
1 2 3 4 5
comments
print report bad tab
1 comment total.
0 reply
FranKLynn 20 Dec 06, 2008 06:00 PM

good job

guest
You may want to rate the tab now too:
select rating
Wanna post a correction for this tab? Suggest correction