Oops, an error
Loading. Please wait.

Ambotsa tab

225 views 1 this week
no commentswrite comment
1 2 3 4 5
2 more votes to show rating
add to favorites
×
Save as Personal and add changes to this tab that will be seen only by you. Learn more ›
×
You can save this tab as Personal to edit and correct it or add notes. All changes will be seen only by you. Learn more »
launch autoscroll
font size
0
reset
how to read this tab
guitar tuner
edit
Autoscroll
slow
fast
+/-
esc
set tempo
stop
Author
Ambotsa Tab by Rivermaya
Tabbed by: eckounplugged (echo_paul_08@yahoo.com)

Intro:
Guitar 2: (Jayson Fernandez)
A – G – E - A – G – E - G - A – G – E - A – G – E


Guitar 1: (Mike Elgar)

      A     G    E        G  
e:-5-5---3---0-0-0---3-3-3-------------------------------|
B:-5-5---3---0-0-0---3-3-3-------------------------------|
G:-6-6---4---1-1-1---4-4-4-------------------------------|2x
D:-7-7---5---2-2-2---5-5-5-------------------------------|
A:-7-7---5---2-2-2---5-5-5-------------------------------| 
E:-5-5---3---0-0-0---3-3-3-------------------------------|

e:--9---9----3---0-0-0---3-3-3---------------------------|
B:--10--10---3---0-0-0---3-3-3---------------------------|
G:--9---9----4---1-1-1---4-4-4---------------------------|2x
D:-----------5---2-2-2---5-5-5---------------------------|
A:-----------5---2-2-2---5-5-5---------------------------| 
E:-----------3---0-0-0---3-3-3---------------------------|

e:--------------------------------------------------------------|
B:--------------------------------------------------------------|
G:--------------------------------------------------------------|
D:------------------5h6-------------------------------5-9-5-7---|2x
A:------3----3-5-5h7----5-5h7-5-----------3---3-5-5h7-----------| 
E:--5-5----5--------------------7-5---5-5---5-------------------|



Verse 1:

A
Ano ba talaga?
             G      Bm      
Kanan o biglang kaliwa?
A
Friends lang nga talaga
                           G       Bm
Kahit ka-holding hands under the table
A                                          G-Bm
Hindi ako nagpa-pa hard to get
           A
Pero kung di mo ma-get
                   G-Bm
Let’s just forget

CHORUS: D - C - G
Ambot sa imo
(Repeat 4x)
Intro Chords:
e:--------------------------------------------------------------|
B:--------------------------------------------------------------|
G:--------------------------------------------------------------|
D:------------------5h6-------------------------------5-9-5-7---|2x
A:------3----3-5-5h7----5-5h7-5-----------3---3-5-5h7-----------| 
E:--5-5----5--------------------7-5---5-5---5-------------------|


Verse 2: A – C – D – F# - G
A – C – D – E - G
Wala akong paki sa ‘yo
Ano kayang ginagawa mo?
Ayaw na nga kitang makita
Kelan ba tayo magsasama?
A
‘Wag mo nakong mahalin
                 G    Bm
Pero wag naman akong limutin
A
‘Wag mo nakong mahalin
                 G    Bm
Pero wag naman akong limutin
G-
Ok na eh
G-
Ok na eh

CHORUS: D - C - G
Ambot sa imo
(Repeat 4x)

Guitar Solo: D – C – G (4x)


BRIDGE: 
D
Eh-yow!
A
Nag unsaman ka?


CHORUS: D - C - G
Aambot sa imo
(Repeat 4x)
D – C - G
Ewan ko ba sa iyo, sa iyo
Ewan ko bas a ‘yo
It’s not you it’s me

Intro Chords: A – G – E – G
e:--------------------------------------------------------------|
B:--------------------------------------------------------------|
G:--------------------------------------------------------------|
D:------------------5h6-------------------------------5-9-5-7---|2x
A:------3----3-5-5h7----5-5h7-5-----------3---3-5-5h7-----------| 
E:--5-5----5--------------------7-5---5-5---5-------------------|

I know right?


Hello nga pala kay raffy "makoy" remigio.haha..rock and roll!!!

.kina paul van, ryan, patrick- mga dudes jamming tau ulit!!nakakamiss eh
pareng moi at paren daniel jam din tau sa church nyo..haha..


            
            
Suggest correction
Creating personal tab
Creating personal tab
You can edit any tab online and save it as your Personal.

You can edit, replace or remove any tab part or add personal notes – all changes will be seen only by you.

Personal tabs can be accessed anytime from any device, even offline.
Learn more »
Give kudos to tab author, rate the tab!
1 2 3 4 5
comments
print report bad tab
guest
You may want to rate the tab now too:
select rating
Wanna post a correction for this tab? Suggest correction