Oops, an error
Loading. Please wait.

Banda Ng Bayan tab

version 2
version 2

Whole song

208 views 1 this week
no commentswrite comment
1 2 3 4 5
2 more votes to show rating
add to favorites
×
Save as Personal and add changes to this tab that will be seen only by you. Learn more ›
×
You can save this tab as Personal to edit and correct it or add notes. All changes will be seen only by you. Learn more »
launch autoscroll
font size
0
reset
how to read this tab
guitar tuner
edit
Autoscroll
slow
fast
+/-
esc
set tempo
stop
Author
Difficulty
Song:          Banda ng Bayan
Album:         Bagong Liwanag
Band/Artist:   Rivermaya
Tabbed by:     Paulo Prima (primesenthyx@yahoo.com)

--------------------------------------------------------------------------------------------

Intro1:

|----5-------5~-----------5~-|---5--------7~-------------|
|------------5~----8~-----5~-|------------5~----8-8\--3~-|
|--7--7---6-------9----4-----|--7--7---6-------9------4~-|
|-7------7-7-----9----5-5----|-7------7-7-----9-------5~-|
|----------------------------|---------------------------|
|----------------------------|---------------------------|

Intro2:  D-A-Em-G-A

  D           A         Em      G   -  A
|-2~-2--------x-----0~--x---0---3~-3---x-0---|
|-3~--3--(3)--2~--2-----x----0--3~--3--2--2--|
|-2~---(2)----2~-2------0~-0----0~---0-2---2-|  2x
|-0~----------2~--------2~------0~-----2-----|
|-------------0~--------2~------2~-----0-----|
|-------------------------------3~-----------|

  D           A         Em      G   -   A
|-2~-2--------x-----0~--x---0------------------|
|-3~--3--(3)--2~--2-----x----0--3~-3----5~-5---|
|-2~---(2)----2~-2------0~-0----4~--4---6~--6--|  2x
|-0~----------2~--------2~------5~---5/-7~---7-|
|-------------0~--------2~---------------------|
|----------------------------------------------|


Verse1:

      D                    G  Bm
|-------------------------333-222-|
|-------------------------333-333-|
|----77--777--77----77-77-444-444-| 2x
|--77--77---77--77----7---555-444-|
|-5----------------5------555-222-|
|-------------------------333-----|

     D                 F#m      G         F#m   G      
|-5-------------------------------------|-2~~---3~~-|
|-7-7--7--7--7--7-----------------------|-2~~---3~~-|
|-7--7--7--7--7--7----------------------|-2~~---4~~-|
|-7---7--7--7--7--7-4444444444555555555-|-4~~---5~~-|
|-5-------------------------------------|-----------|
|---------------------------------------|-----------|


Verse I:
D
Nagsisimula pa lang
G    Bm
Teka muna
D
Pakinggan nyo kami
     G     Bm
Kung ayos lang
D                      F#m     G
Hindi naman kailangan pagpilitan
F#m                         G         
Kung ayaw mo, Kung ayaw mo, Okey lang

Chorus1:

   D                Bm              G                     A
|-22-2--3-2-32---2-----2--2------3-------------------55-------5--|
|-33--3----3--3--3--3---3--3-----3--3----------------55-5---5--5-|
|-22---2---------4---4---4--(4)--4---4---------------66--6---6---|
|----------------4-4--4----------5-5--5-5s7-5-4-5-4--77----7-----|
|----------------2---------------5-5-----------------77----------|
|--------------------------------3-------------------55----------|

Chorus1:
             D
Ang sarap ng buhay
                Bm
Mga maliliit na bagay
                G
Nagdadagdag ng kulay sa kapaligiran
 A
Mga problemang nakakantahan

Interlude: D-A-Em-G-A

  D           A         Em      G   -   A
|-2~-2--------x-----0~--x---0------------------|
|-3~--3--(3)--2~--2-----x----0--3~-3----5~-5---|
|-2~---(2)----2~-2------0~-0----4~--4---6~--6--|  2x
|-0~----------2~--------2~------5~---5/-7~---7-|
|-------------0~--------2~---------------------|
|----------------------------------------------|


Verse2: 

      D           G  Bm         D               G   Bm
|----------------333-222-|-2-2--2--3~-2~-3-2---333-222-|
|----------------333-333-|-3--3--3----------2~-333-333-|
|--7-7-----7-7---444-444-|-2---2--2------------444-444-|
|---7-7~~---7-7~-555-444-|---------------------555-444-|
|-5-------5------555-222-|---------------------555-222-|
|----------------333-----|---------------------333-----|

     D               F#m            G            F#m       G
|-5-5--5--5~--5----------9-------------10----10~-5~~--5----7~~-|
|-7--7--7---7--7-----10---10—(10)--12----12------7~~---7---8~~-|
|-7---7--7---7--7/-11--11---11---12--12----12----6~~----6~-7~~-|
|--------------------------------------------------------------|
|--------------------------------------------------------------|
|--------------------------------------------------------------|

Ang nagmamahal
Walang katulad
Ang hirap ng buhay
Sinabi mo pa
Pero nagagawan ng paraan
Harapin ang katotohanan

Chorus2:

  D              Bm              G                   A
|-22-2--3-2-32---2-----2--2------3-------------------55-------5--|
|-33--3----3--3--3--3---3--3-----3--3----------------55-5---5--5-|
|-22---2---------4---4---4--(4)--4---4---------------66--6---6---|
|----------------4-4--4----------5-5--5-5s7-5-4-5-4--77----7-----|
|----------------2---------------5-5-----------------77----------|
|--------------------------------3-------------------55----------|



  D              Bm              G                   A
|-22-2--3-2-32---2-----2--2------3----------------55-------5------|
|-33--3----3--3--3--3---3--3-----3--3-------------55-5---5--5-----|
|-22---2---------4---4---4--(4)--4---4------------66--6---6--6----|
|----------------4-4--4----------5-5--5-5s7-5-4---77----7-----(7)-|
|----------------2---------------5-5-----------5~-77--------------|
|--------------------------------3----------------55--------------|

             D
Ang sarap ng buhay
                Bm
Mga maliliit na bagay
                G
Nagdadagdag ng kulay sa kapaligiran
    A
Takbo ng mundo ay nasasabayan
    D
Pagpugay
                    Bm
Kami ay nagbibigay pugay
          G
Sa aming mga kasama, nakasama
   A
Tuloy ang ligaya...


Bridge:
   C               D
|-----------------------------------|
|-----------------------------------|
|-----------------------------------| 2x
|-10-10-10-10-1010-12-12-12-12-1212-|
|-10-10-10-10-1010-12-12-12-12-1212-|
|-8--8--8--8--8-8--10-10-10-10-1010-|

  Em                G
|-----------------------------------|
|-----------------------------------|
|------------------12-12-12-12-1212-|
|-14-14-14-14-1414-12-12-12-12-1212-|
|-14-14-14-14-1414-10-10-10-10-1010-|
|-12-12-12-12-1212------------------|

         C                               D
|-----------------------------------------------------------|
|-----------------------------------------------------------|
|-----------------------------------------------------------|
|-1010101010101010101010101010-1212121212121212121212121212-|
|-1010101010101010101010101010-1212121212121212121212121212-|
|-8-8-8-8-8-8-8-8-8-8-8-8-8-8--1010101010101010101010101010-|

C                    D
Tara sumama, umawit ka
C                        D
Lagyan ng boses ang musika
Em
Sama sama tayo
G
Walang iwanan
C                     D 
Tayo po, tayo po ang banda ng bayan

Outro:
G       D   Am       C
Tara sumama, umawit ka               repeat 4x    
G         D          Am        C
Lagyan natin ng boses ang musika


   G        D         Am     C            G         D         Am     C 
|-3--3------2--2---------0--------------|-3--3------2--2---------0-----0----------|
|-3---2-(2)-3---3-(3)-1---1--1--0-1-3~--|-3---2-(2)-3---3-(3)-1---1--1--1-0-1-3-1-|
|-x-0--0----2----2----2----2-0----------|-x-0--0----2----2----2----2-0---0--------| 4x
|-0------0--0-0-------2-2----2-2--------|-0------0--0-0-------2-2----2--(2)-------|
|-2-------------------0------3----------|-2-------------------0------3------------|
|-3-------------------------------------|-3---------------------------------------|

Then after the fourth time...

guitar1(lead)
guitar2(rhythm)
 
   G   -  D  -  Am -  C     G   -  D - Am - C        
|---10~~----------------|---10~~---8-7-10-8-7~-|
|--8--------------------|--8-------------------|
|-7---------------------|-7--------------------|
|-----------------------|----------------------|
|-----------------------|----------------------|
|-----------------------|----------------------|


---------------------------------------------------------------------------------------------

thnx2:
   > SenthyX Zone(SXZ)
   > Senthyx band
        -joe  (D)
        -randz(B)
        -andy (RG/V)
        -pauz (LG)
hi 2:
   > IV-St.Agatha (class of s/y 09-10)

            
            
Suggest correction
Creating personal tab
Creating personal tab
You can edit any tab online and save it as your Personal.

You can edit, replace or remove any tab part or add personal notes – all changes will be seen only by you.

Personal tabs can be accessed anytime from any device, even offline.
Learn more »
Give kudos to tab author, rate the tab!
1 2 3 4 5
comments
print report bad tab
guest
You may want to rate the tab now too:
select rating
Wanna post a correction for this tab? Suggest correction