Oops, an error
Loading. Please wait.

Sleep tab

version 1
version 1

Whole song

7,650 views 3 this week
no commentswrite comment
1 2 3 4 5
3 more votes to show rating
add to favorites
×
Save as Personal and add changes to this tab that will be seen only by you. Learn more ›
×
You can save this tab as Personal to edit and correct it or add notes. All changes will be seen only by you. Learn more »
launch autoscroll
font size
0
reset
how to read this tab
guitar tuner
edit
Autoscroll
slow
fast
+/-
esc
set tempo
stop
My first tab creation..hope u like it....
Sleep y Rivermaya
tabS by Christian fajura

e14-14-12-14-10-10-9-7-5-3-3-2-3-5-7-7-9-10-12-|
b----------------------------------------------|
G----------------------------------------------|
D12-12-------9---9-7-5-4-2-2-----4-5-5-7-9--11-|
A----------------------------------------------|
E----------------------------------------------|

e7-9-10-9-7-7--------------|-7-9-10-9-7-7-9-10----|
b-------------7-8-10-8-7---|-------------------10-|
G------------------------7-|----------------------|
D--------------------------|----------------------|
A--------------------------|----------------------|
E--------------------------|----------------------|

e7-9-10-9-7-7------------|-----10|
b------------7-8-10-8-7--|10-12--|
G----------------------7-|-------|
D------------------------|-------|
A------------------------|-------|
E------------------------|-------|


Verse 1.

D                    A  
Tonight’s the first night
                  Bm        A
You’re no longer in my arms
D              A
A little colder
                Bm                A
Nothing but the darkness and the stars

G                      D
My hand wonders through
                          Bm-A
The space where you used to be
G                    D      
I really wish that you’d
                   Bm-A
Still come home to me

Chorus:

Until then, I’ll 
D-A-G-A
Sleep
Sleep

Verse:
-pareho sa Verse 1

Remember yesterday
When your smile filled every room
Imagined forever with you
Now you’re gone too soon

G              D
I can fell you calling
        Bm                   A
There’s no place that I’d rather be
            G       D
Just here with you, sleeping
   Bm----A-----G
If only in my mind

Chorus:

Until then I’ll sleep
Sleep


Solo: D-A-Bm-A-G-F#m-G-Em-A7 (2x)


I can fell you calling
There’s no place that I’d rather be
Just here with you, sleeping
If only in my mind

Repeat Chorus

Outro:
D-A-Bm-A-G-F#m-G-Em-A7  (2x)
e14-12-10-9-7-|0------|
b-------------|-0-----|
G-------------|--0----|
D12-11-9--7-5-|---0---|
A-------------|----0--|
E-------------|-----0-|



            
            
Suggest correction
Creating personal tab
Creating personal tab
You can edit any tab online and save it as your Personal.

You can edit, replace or remove any tab part or add personal notes – all changes will be seen only by you.

Personal tabs can be accessed anytime from any device, even offline.
Learn more »
Give kudos to tab author, rate the tab!
1 2 3 4 5
comments
print report bad tab
guest
Wanna post a correction for this tab? Suggest correction