Oops, an error
Loading. Please wait.

Ulan tab

version 1
version 1

Whole song

Interactive

32,230 views 30 this week
no commentswrite comment
1 2 3 4 5
x 7
add to favorites
×
Save as Personal and add changes to this tab that will be seen only by you. Learn more ›
×
You can save this tab as Personal to edit and correct it or add notes. All changes will be seen only by you. Learn more »
launch autoscroll
font size
0
reset
how to read this tab
guitar tuner
edit
Autoscroll
slow
fast
+/-
esc
set tempo
stop
Author
Unregistered
[Intro] (2x)
(plucking)
e|----------------------------0-2-3--------------|
B|--------------3-----------3--------------------|
G|------------0-----3x----2----------------------|
D|------0---2-----------0------------------------|
A|----2---3--------------------------------------|
E|--3--------------------------------------------|
 
(2x) 
(struming) 
G-C-G-C-G-C-Dsus-D-D9
e|--3-----3----------------0------2--3-----------|
B|--3-----3----------------3------3--3-----------|
G|--0--2x-0--4x---both 3x--2--2x--2--2-----------|
D|--0-----2----------------0------0--0-----------|
A|--2-----3----------------0------0--0-----------|
E|--3-----x----------------0------0--0-----------|

[Verse] (x2)
(plucking)
e|----------------------------0-2-3--------------|
B|--------------3-----------3--------------------|
G|------------0-----3x----2----------------------|
D|------0---2-----------0------------------------|
A|----2---3--------------------------------------|
E|--3--------------------------------------------|
 
Hiwaga ng panahon... (plucking)
Daan-daan... (struming)
 
[Pre-Chorus]
Am-Em-Am-Em
Tatawa ng lamang
e|--0----------------0---------------------------|
B|--1**sundan mo ung-0**-------------------------|
G|--2--beat ng song--0----both 2x----------------|
D|--2--for this part-2---------------------------|
A|--0----------------2---------------------------|
E|--0----------------0---------------------------|

Ang aking damdamin
C-Dsus-D-D9
e|--0----0----2--3-------------------------------|
B|--1**--3**--3--3-------------------------------|
G|--0----2----2--2-------------------------------|
D|--2----0----0--0-------------------------------|
A|--3----0----0--0-------------------------------|
E|--0----0----0--0-------------------------------|
 
[Chorus]
(2x) 
(struming) 
G-C-G-C-G-C-Dsus-D-D9
e|--3-----3----------------0------2--3-----------|
B|--3-----3----------------3------3--3-----------|
G|--0--2x-0--4x---both 3x--2--2x--2--2-----------|
D|--0-----2----------------0------0--0-----------|
A|--2-----3----------------0------0--0-----------|
E|--3-----x----------------0------0--0-----------|

..ulan...
(gamitin mo ung chords ng intro for the "ulan... 
sinong di..." part) 

(both plucking and struming same number ha!!)

[Verse 2]
(x2)
(plucking)
e|----------------------------0-2-3--------------|
B|--------------3-----------3--------------------|
G|------------0-----3x----2----------------------|
D|------0---2-----------0------------------------|
A|----2---3--------------------------------------|
E|--3--------------------------------------------| 

[Pre-Chorus]
Am-Em-Am-Em
Tatawa ng lamang
e|--0----------------0---------------------------|
B|--1**sundan mo ung-0**-------------------------|
G|--2--beat ng song--0----both 2x----------------|
D|--2--for this part-2---------------------------|
A|--0----------------2---------------------------|
E|--0----------------0---------------------------|

Ang aking damdamin
C-Dsus-D-D9
e|--0----0----2--3-------------------------------|
B|--1**--3**--3--3-------------------------------|
G|--0----2----2--2-------------------------------|
D|--2----0----0--0-------------------------------|
A|--3----0----0--0-------------------------------|
E|--0----0----0--0-------------------------------|

[Chorus]
(2x) 
(struming) 
G-C-G-C-G-C-Dsus-D-D9
e|--3-----3----------------0------2--3-----------|
B|--3-----3----------------3------3--3-----------|
G|--0--2x-0--4x---both 3x--2--2x--2--2-----------|
D|--0-----2----------------0------0--0-----------|
A|--2-----3----------------0------0--0-----------|
E|--3-----x----------------0------0--0-----------|

[Adlib]
e|---------------------------------------------------|
B|---------------------------------------------------|
G|--------7-----------4-----5-----------------7------|
D|--5-----7-8x--2-----4-8x--5-8x--5-----7-----7-8x---|
A|--5-8x--5-----2-8x--2-----3-----5-8x--7-8x--5------|
E|--3-----------0-----------------3-----5------------|

e|---------------------------------------------------|
B|---------------------------------------------------|
G|--------7-----------4-----5-----------------7------|
D|--5-----7-4x--2-----4-4x--5-8x--5-----7-----7-5x---|
A|--5-8x--5-----2-8x--2-----3-----5-8x--7-8x--5------|
E|--3-----------0-----------------3-----5------------|

[Pre-Chorus]
Am-Em-Am-Em
Tatawa ng lamang
e|--0----------------0---------------------------|
B|--1**sundan mo ung-0**-------------------------|
G|--2--beat ng song--0----both 2x----------------|
D|--2--for this part-2---------------------------|
A|--0----------------2---------------------------|
E|--0----------------0---------------------------|

Ang aking damdamin
C-Dsus-D-D9
e|--0----0----2--3-------------------------------|
B|--1**--3**--3--3-------------------------------|
G|--0----2----2--2-------------------------------|
D|--2----0----0--0-------------------------------|
A|--3----0----0--0-------------------------------|
E|--0----0----0--0-------------------------------|

[Chorus]
(2x) 
(struming) 
G-C-G-C-G-C-Dsus-D-D9
e|--3-----3----------------0------2--3-----------|
B|--3-----3----------------3------3--3-----------|
G|--0--2x-0--4x---both 3x--2--2x--2--2-----------|
D|--0-----2----------------0------0--0-----------|
A|--2-----3----------------0------0--0-----------|
E|--3-----x----------------0------0--0-----------|

[Outro] (4x)
A-D-A-D-A-D-E
(eto ung tumaas ung tono pagkatapos nung ".....OH!!...")
e|--0-----2---------------0--------------------------|
B|--3-----3---------------0--------------------------|
G|--3-2x--2-4x---both 3x--1-4x-----------------------|
D|--3-----0---------------2--------------------------|
A|--0-----0---------------2--------------------------|
E|--0-----0---------------0--------------------------|


************************************

| x  Dead note

************************************

            
            
Suggest correction
Creating personal tab
Creating personal tab
You can edit any tab online and save it as your Personal.

You can edit, replace or remove any tab part or add personal notes – all changes will be seen only by you.

Personal tabs can be accessed anytime from any device, even offline.
Learn more »
comments
print report bad tab
guest
Wanna post a correction for this tab? Suggest correction