Oops, an error
Loading. Please wait.

Shepherd Of My Soul tab

700 views 15 this week
no commentswrite comment
1 2 3 4 5
x 4
add to favorites
×
Save as Personal and add changes to this tab that will be seen only by you. Learn more ›
×
You can save this tab as Personal to edit and correct it or add notes. All changes will be seen only by you. Learn more »
launch autoscroll
font size
0
reset
how to read this tab
guitar tuner
edit
Autoscroll
slow
fast
+/-
esc
set tempo
stop
There is a part towards the end (indicated) that I am very unsure about, so shout out your suggestions :)
Special chord. After that, it is pretty straight forward.

  A7sus4*
e|--0--|
B|--3--|
G|--0--|
D|--2--|
A|--0--|
E|--x--|

[Intro]
   Em7                            D             Cmaj7  
e|---------------|---------------|---------------|---------------|
B|-------3-------|-------3-------|-------0-------|-------0-------|
G|---0-----0-----|---0-----0-----|---0-----0-----|---0-----0-----|
D|-----2-----2---|-----2-----2---|-----4-----4---|-----2-----2---|
A|---------------|---------------|-5-------------|-3-------------|
E|-0-------------|-0-------------|---------------|---------------|   x2

[Verse 1]
    Cmaj7                           G/B                             Am 
e|---------------|---------------|---------------|---------------|---------------|---------------|
B|-------0-------|-------0-------|-------0-------|-------0-------|-------1-------|-------1-------|
G|---0-----0-----|---0-----0-----|---0-----0-----|---0-----0-----|---2-----2-----|---2-----2-----|
D|-----2-----2---|-----2-----2---|-----0-----0---|-----0-----0---|-----2-----2---|-----2-----2---|
A|-3-------------|-3-------------|-2-------------|-2-------------|-0-------------|-0-------------|
E|---------------|---------------|---------------|---------------|---------------|---------------|
     Em             D
e|---------------|---------------|
B|-------0-------|-------0-------|
G|---0-----0-----|---0-----0-----|
D|-----2-----2---|-----4-----4---|
A|---------------|-5-------------|
E|-0-------------|---------------|   x2

[Chorus 1]
   Am                                G/B            D
e|---------------|---------------|---------------|---------------|
B|-------1-------|-------1-------|-------0-------|-------0-------|
G|---2-----2-----|---2-----2-----|-----0---0-----|---0-----0-----|
D|-----2-----2---|-----2-----2---|-----------0---|-----4-----4---|
A|-0-------------|-0-------------|-0h2-----------|-5-------------|
E|---------------|---------------|---------------|---------------|    x4

[Interlude]
   Em7                            D             Cmaj7  
e|---------------|---------------|---------------|---------------|
B|-------3-------|-------3-------|-------0-------|-------0-------|
G|---0-----0-----|---0-----0-----|---0-----0-----|---0-----0-----|
D|-----2-----2---|-----2-----2---|-----4-----4---|-----2-----2---|
A|---------------|---------------|-5-------------|-3-------------|
E|-0-------------|-0-------------|---------------|---------------|   x2

[Verse 2]
    Cmaj7                           G/B                             Am 
e|---------------|---------------|---------------|---------------|---------------|---------------|
B|-------0-------|-------0-------|-------0-------|-------0-------|-------1-------|-------1-------|
G|---0-----0-----|---0-----0-----|---0-----0-----|---0-----0-----|---2-----2-----|---2-----2-----|
D|-----2-----2---|-----2-----2---|-----0-----0---|-----0-----0---|-----2-----2---|-----2-----2---|
A|-3-------------|-3-------------|-2-------------|-2-------------|-0-------------|-0-------------|
E|---------------|---------------|---------------|---------------|---------------|---------------|

     Em             D
e|---------------|---------------|
B|-------0-------|-------0-------|
G|---0-----0-----|---0-----0-----|
D|-----2-----2---|-----4-----4---|
A|---------------|-5-------------|
E|-0-------------|---------------|   

    Cmaj7                           G/B                             Am 
e|---------------|---------------|---------------|---------------|---------------|---------------|
B|-------0-------|-------0-------|-------0-------|-------0-------|-------1-------|-------1-------|
G|---0-----0-----|---0-----0-----|---0-----0-----|---0-----0-----|---2-----2-----|---2-----2-----|
D|-----2-----2---|-----2-----2---|-----0-----0---|-----0-----0---|-----2-----2---|-----2-----2---|
A|-3-------------|-3-------------|-2-------------|-2-------------|-0-------------|-0-------------|
E|---------------|---------------|---------------|---------------|---------------|---------------|

     Em             D
e|---------------|---------------|
B|-------0-------|-------0-------|
G|---0-----0-----|---0-----0-----|
D|-----2-----2---|-----4-----4---|
A|---------------|-5-------------|
E|-0-------------|---------------|   

[Chorus 2]
   Am                                G/B            D
e|---------------|---------------|---------------|---------------|
B|-------1-------|-------1-------|-------0-------|-------0-------|
G|---2-----2-----|---2-----2-----|-----0---0-----|---0-----0-----|
D|-----2-----2---|-----2-----2---|-----------0---|-----4-----4---|
A|-0-------------|-0-------------|-0h2-----------|-5-------------|
E|---------------|---------------|---------------|---------------|   x8

[Interlude]
   Em7                            D             Cmaj7  
e|---------------|---------------|---------------|---------------|
B|-------3-------|-------3-------|-------0-------|-------0-------|
G|---0-----0-----|---0-----0-----|---0-----0-----|---0-----0-----|
D|-----2-----2---|-----2-----2---|-----4-----4---|-----2-----2---|
A|---------------|---------------|-5-------------|-3-------------|
E|-0-------------|-0-------------|---------------|---------------|   x2

[Bridge] 
("You comfort you sustain...")
   Em7                            D             Cmaj7  
e|---------------|---------------|---------------|---------------|
B|-------3-------|-------3-------|-------0-------|-------0-------|
G|---0-----0-----|---0-----0-----|---0-----0-----|---0-----0-----|
D|-----2-----2---|-----2-----2---|-----4-----4---|-----2-----2---|
A|---------------|---------------|-5-------------|-3-------------|
E|-0-------------|-0-------------|---------------|---------------| x2

("You lead me, by stil waters lead me...")
   Cmaj7                 D                Cmaj7            D
e|-----------------|-------------------|-----------------|-------------------|
B|-------0-------0-|-------0-------0---|-------0-------0-|-------0-------0---|
G|---0-----0---0---|---0-----0---0-----|---0-----0---0---|---0-----0---0-----|
D|-----2-----2-----|-----4-----4-------|-----2-----2-----|-----4-----4-------|
A|-3---------------|-5-----------------|-3---------------|-5-----------------|
E|-----------------|-------------------|-----------------|-------------------| 

[Interlude] 
e|---------------------------------|--------------------------------|
B|-----0-----0---------0-----0-----|-----0----0---------0-----0-----|
G|---0-----0-----0---0-----0-----0-|---0----0-----0---0-----0-----0-|
D|-2-----4-----2-------------------|-2----4-----2-------------------|
A|-----------------5-----4-----2---|----------------5-----4-----2---|
E|---------------------------------|--------------------------------|

e|----------------------------------------------|
B|-------2------------2-----2h3-3-----3p2---2p0-|
G|---0-----0-0----0-----0-0-------0-0------0----|
D|-----2----2-------2----2---------2------2-----|
A|-0------------0-------------------------------|
E|----------------------------------------------| x4

[Bridge 2]
        Em         D/F#       G         D/B         A7  A7sus4*  A7  A7sus4
Through valleys of shadow and death I am not afraid
   Em          D/F#         G         D/B         A7  A7sus4  A7  A7sus4
By my Father's breath every star in the sky was made
    Em         D/F#            G          D/B              A7  A7sus4  A7  A7sus4
And who can i fear when you're standing right here by my side
       Em         D/F#          G         D/B         A7     A7sus4  A7  A7sus4
Always leading, protecting and guarding my left and my right

[Interlude](Solo 2)(SUPER UNSURE PART!!!!)
e|----------------------------|----------------------------|
B|-------5--7--2--2-------2---|-------5--7--2--2-------2---|
G|---0---6--6--0----0---0---0-|---0---6--6--0----0---0---0-|
D|----------------------------|----------------------------|
A|-0---0--------------0-------|-0---0--------------0-------|
E|----------------------------|----------------------------|

e|---------------------------------|---------------------------------------|
B|-----------2---------------------|-----------2---------------------------|
G|-------4-------2---4---2---4---2-|-------4-------2---4---2---4---2-------|
D|-0---0---0---0---0---0---0---0---|-0---0---0---0---0---0---0---0---0---0-|
A|---------------------------------|---------------------------------------|
E|---------------------------------|---------------------------------------|  x2

[Bridge 3]
 ("Oh father, you make all things new...")
     Em                Em/F#             Em /G             Em/B
e|-----------------|-----------------|----------------|-----------------|
B|-------0---------|-----0-----------|-----0----------|-----0-----------|
G|---0-----0---0---|---0-----0---0---|---0-----0---0--|---0-----0---0---|
D|-----2-----2-----|-----2-----2-----|-----2-----2----|-----2-----2-----|
A|-----------------|-----------------|----------------|-2---------------|
E|-0---------------|-2---------------|-3--------------|-----------------|

    A7                     A7sus4           A7
e|----------------------------------------------|
B|-------2------------2-----2h3-3-----3p2---2p0-|
G|---0-----0-0----0-----0-0-------0-0------0----|
D|-----2----2-------2----2---------2------2-----|
A|-0------------0-------------------------------|
E|----------------------------------------------|  x2


[Outro]
   Em    D/F#    G    D/B    A7  A7sus4  A7  A7sus4     x4
Woo hooo hooo ......                                   

************************************

| h   Hammer-on
| p   Pull-off

************************************

            
            
Suggest correction
Creating personal tab
Creating personal tab
You can edit any tab online and save it as your Personal.

You can edit, replace or remove any tab part or add personal notes – all changes will be seen only by you.

Personal tabs can be accessed anytime from any device, even offline.
Learn more »
comments
print report bad tab
guest
You may want to rate the tab now too:
select rating
Wanna post a correction for this tab? Suggest correction