Oops, an error
Loading. Please wait.

I Turned You Down bass

version 2
version 2

Whole song

Interactive

993 views 1 this week
1 commentread comment
1 2 3 4 5
x 3
add to favorites
×
Save as Personal and add changes to this tab that will be seen only by you. Learn more ›
×
You can save this tab as Personal to edit and correct it or add notes. All changes will be seen only by you. Learn more »
launch autoscroll
font size
0
reset
guitar tuner
edit
Autoscroll
slow
fast
+/-
esc
set tempo
stop
Difficulty
intermediate
#----------------------------------PLEASE NOTE------------------------------#
# This is the author's own work and represents their interpretation of the  #
# song. You may only use this for private study, scholarship, or research.  #
#---------------------------------------------------------------------------#

Tabbed By: m3tal_bassist

Tuning: Standard

I tabbed this with reference to the the reality dream live dvd so it should 
be pretty accurate. All the tabs I looked at had the bass intro starting (wrong) on 
the low E string instead of the high D so I wanted to tab it correctly along 
with the rest of the song. Not saying this tab is perfect but should be 
closer to what Mariusz is doing than other tabs I have seen. Thanks!

Any comments or questions email m3tal_bassist@yahoo.com


-----------------------------------------------------------------------------
		           I Turned You Down - Riverside
-----------------------------------------------------------------------------


Intro (Repeat 3 times)

G|-----------7---5-----5---5h7------------8---7------7h8--------------------|
D|--/5----5----5---5-5---5--------/6---6----6---6-6------8------------------|
A|--------------------------------------------------------------------------|
E|--------------------------------------------------------------------------|



G|-----------7---5-----5---5h7-------------8---7------12-12-----------------|
D|--/5----5----5---5-5---5--------/6---6----6---6---9-------9---------------|
A|--------------------------------------------------------------------------|
E|--------------------------------------------------------------------------|


Verse

:42

G|--------------------------------------------------------------------------|
D|--------------------------------------------------------------------------|
A|--------------------1-1-1-3-3-3-3-----------------------------------------|
E|--3-3-1h3-3-3--3-3--------------------------------------------------------|


1:50 Just a small bass run (something like that and repeats later)

G|--------5-55--------------------------------------------------------------|
D|--------------------------------------------------------------------------|
A|--3--3-------3------------------------------------------------------------|
E|--------------------------------------------------------------------------|


Chorus 2:18 .. I wish you told me that before (same as the verse)


2:47 .. I turned you down, down, down, down (whisper part)

G|--------------------------------------------------------------------------|
D|--------------------------------------------------------------------------|
A|--------------------------------------------------------------------------|
E|--3-1-3-----3-1-3-----3-1-3-----------------------------------------------|


Chorus 3:18 (same as verse)


3:28 Guitar Solo 

(slight bass change should get you close) until 3:40

G|--------------------------------------------------------------------------|
D|--------------------------------------------------------------------------|
A|--5-3---------------------------------------------------------------------|
E|-------5-3-5--3h5-5-5--3-5-5----------------------------------------------|


Then go back to Verse riff


4:21 Small bass ending

G|--------------------------------------------------------------------------|
D|--5-5-5-5-5-5-5-5-5-5-5-5-5-----------------------------------------------|
A|--------------------------------------------------------------------------|
E|-----------------------------3~~------------------------------------------|


            
            
Suggest correction
Creating personal tab
Creating personal tab
You can edit any tab online and save it as your Personal.

You can edit, replace or remove any tab part or add personal notes – all changes will be seen only by you.

Personal tabs can be accessed anytime from any device, even offline.
Learn more »
Give kudos to tab author, rate the tab!
1 2 3 4 5
comments
print report bad tab
1 comment total.
0 reply
Illjumon 11 Dec 27, 2015 02:43 AM

The intro riff is wrong, the second slide should be on the 8th fret instead of the six and you missed out on the pull off in the virst variation

guest
Wanna post a correction for this tab? Suggest correction