Oops, an error
Loading. Please wait.

Miss Kita Pag Tuesday tab

version 1
version 1

Whole song

6,330 views 3 this week
7 commentsread comments
1 2 3 4 5
x 6
add to favorites
×
Save as Personal and add changes to this tab that will be seen only by you. Learn more ›
×
You can save this tab as Personal to edit and correct it or add notes. All changes will be seen only by you. Learn more »
launch autoscroll
font size
0
reset
how to read this tab
guitar tuner
edit
Autoscroll
slow
fast
+/-
esc
set tempo
stop
Author
Difficulty
Miss Kita Pag Tuesday
By: Rj Jimenez
Sempra ni: James Malibiran


Elow guyz ! sensya kung ngayon lng ako nag.submit, medyo bc po kc…
Rate nyo na lng po… tska laging narereject..hehe..

Legend:

^ - tap


Intro
     A    ^   E    ^   D    ^   E    ^
|-------5--------7--------5--------7------|
|-------5--------7--------5--------7------|
|-----------------------------------------|
|-----------------------------------------|
|-----------7--------5--------7-----------|
|--5--------------------------------------|

Repeat 2x

Verse 1

     A    ^   E    ^   D    ^   E    ^
|-------5--------7--------5--------7--------|
|-------5--------7--------5--------7--------|
|-------------------------------------------|
|-------------------------------------------|
|-----------7--------5--------7-------------|
|--5----------------------------------------|
    Every day tayo ay magkasama

     A    ^   E    ^   D    ^   E    ^
|-------5--------7--------5--------7--------|
|-------5--------7--------5--------7--------|
|-------------------------------------------|
|-------------------------------------------|
|-----------7--------5--------7-------------|
|--5----------------------------------------|
Magkasama lagi sa eskwela

     A    ^   E    ^   D    ^   E    ^
|-------5--------7--------5--------7--------|
|-------5--------7--------5--------7--------|
|-------------------------------------------|
|-------------------------------------------|
|-----------7--------5--------7-------------|
|--5----------------------------------------|
        Ang saya pag recess at lunch break

     A    ^   E    ^   D    ^   E    ^
|-------5--------7--------5--------7--------|
|-------5--------7--------5--------7--------|
|-------------------------------------------|
|-------------------------------------------|
|-----------7--------5--------7-------------|
|--5----------------------------------------|
Tayong dalawa ang parang nag.dadate


     A    ^   E    ^   D    ^   E    ^
|-------5--------7--------5--------7--------|
|-------5--------7--------5--------7--------|
|-------------------------------------------|
|-------------------------------------------|
|-----------7--------5--------7-------------|
|--5----------------------------------------|
		Ye..eh..ye..eh..ye..eh

     A    ^   E    ^   D    ^   E    ^
|-------5--------7--------5--------7--------|
|-------5--------7--------5--------7--------|
|-------------------------------------------|
|-------------------------------------------|
|-----------7--------5--------7-------------|
|--5----------------------------------------|
                   Ganyan tayo almost

     A    ^   E    ^   D    ^   E    ^
|-------5--------7--------5--------7--------|
|-------5--------7--------5--------7--------|
|-------------------------------------------|
|-------------------------------------------|
|-----------7--------5--------7-------------|
|--5----------------------------------------|
   everyday

     A    ^   E    ^   D    ^   E    ^
|-------5--------7--------5--------7--------|
|-------5--------7--------5--------7--------|
|-------------------------------------------|
|-------------------------------------------|
|-----------7--------5--------7-------------|
|--5----------------------------------------|
       Pero       pag Tuesday

     A    ^   E    ^   D      A-------------|
|-------5--------7-----5--------------------|
|-------5--------7-----5--------------------|
|----------------------5--------------------|
|----------------------5--------------------|
|-----------7----------5--------------------|
|--5----------------------------------------|

Refrain:

A       E         D        E
Monday,Wednesday,Thursday,Friday,
A       E-D-E
Saturday..
        A      E     D    E       A   E-D-E
Ang lungkot ng araw pagdating ng Tuesday
A            E    D      E
Everyday na sana tayong magkasama
      A         E       D        E         A      E
Pero sayang talaga ‘di pwedeng ipilit pag Tuesday
   D         E       A  E-D break
I hate this day of Tuesday
	        A-E-D-E(2x)
Mis kita pag Tuesday

Verse II: A-E-D-E

Tuesday ang araw niyo ng boyfriend mo
Nakakainis di makaporma sayo
Sira ang recess at lunchbreak ko
Pag Tuesday talagang basted ako
Oh hoh wo oh, yeahh
Kumpleto nasana ang whole week ko
Kasi naman pag Tuesday
            A------
Nami-miss Kita

Refrain:

A       E         D        E
Monday,Wednesday,Thursday,Friday,
A       E-D-E
Saturday..
        A      E     D    E       A   E-D-E
Ang lungkot ng araw pagdating ng Tuesday
A            E    D      E
Everyday na sana tayong magkasama
      A         E       D        E         A      E
Pero sayang talaga ‘di pwedeng ipilit pag Tuesday
   D         E       A  E-D break
I hate this day of Tuesday
                      A----D
Mis Kita pag Tuesday
      A----D
Pag Tuesday

Verse III:

 A          D             A
Ano ba ang meron sya na wala ako?
A                D         E
Kung nauna lang sana ako sa’yo
     F#m
Ang Tuesday ko
D          E
Oh anong saya


Refrain:

A       E         D        E
Monday,Wednesday,Thursday,Friday,
A       E-D-E
Saturday..
        A      E     D    E       A   E-D-E
Ang lungkot ng araw pagdating ng Tuesday
A            E    D      E
Everyday na sana tayong magkasama
      A         E       D        E         A      E
Pero sayang talaga ‘di pwedeng ipilit pag Tuesday
   D         E       A    E
I hate this day of Tuesday
   D         E       A    E
I hate this day of Tuesday
   D         E       A    E
I hate this day of Tuesday

Verse IV:
 A             C#m-Bm         E          A    C#m-Bm
Isa pang dahilan   kung ba’t ayaw ko ng Tuesday
D      E-break
Kasi naman…
               A      E-D
Coding ako pag Tuesday..
        E      A      E-D
Coding ako pag Tuesday..
        E      A      E-D-E
Coding ako pag Tuesday..

A-E-D-E
A C#m-Bm


Coda:
	        A
Mis kita pag Tuesday

Yung lng po.. I hope nagustuhan nyo.. pakinggan nyo na lng po para malaman nyo ang
strumming.. kung may suggestions o comments (good or bad).. txt nyo lang po ako..
madalang lng po ako may load….hehe.. invite nyo rin po mi sa friendster.. 
Thx guyz and gals! =) ingats kau!

Elow sa mga taga.IC sa USEP obrero… hehe.. =)

pinoydreamacademy.ph

            
            
Suggest correction
Creating personal tab
Creating personal tab
You can edit any tab online and save it as your Personal.

You can edit, replace or remove any tab part or add personal notes – all changes will be seen only by you.

Personal tabs can be accessed anytime from any device, even offline.
Learn more »
comments
print report bad tab
7 comments total. Showing first comments.
0 reply
perfectionist 20 Nov 17, 2006 01:38 AM

ayos.....

0 reply
chiz 10 Nov 17, 2006 01:33 PM

pangit..iedit mo..mxadong mababa...

0 reply
chiz 10 Nov 17, 2006 01:34 PM

pangit tlga nung intro tska verse...

guest
You may want to rate the tab now too:
select rating
Wanna post a correction for this tab? Suggest correction