Oops, an error
Loading. Please wait.

In The Fire tab

version 1
version 1

Whole song

Interactive

3,032 views 6 this week
1 commentread comment
1 2 3 4 5
x 3
add to favorites
×
Save as Personal and add changes to this tab that will be seen only by you. Learn more ›
×
You can save this tab as Personal to edit and correct it or add notes. All changes will be seen only by you. Learn more »
launch autoscroll
font size
0
reset
how to read this tab
guitar tuner
backing track
0:00
0:00
edit
Autoscroll
slow
fast
+/-
esc
set tempo
stop
Author
----------------------------------------------------------------------------
                   In the fire - road runner allstars
----------------------------------------------------------------------------


Tabbed by:Jack Cadenhead
Email:jfcdante@hotmail.com
Tunning:Standard

This is a really great song by the metalers of Roadrunner.The CD was made fby many
roadrunner bands.Roadrunner United picked captains (Matt Heafy,Robert Flyn, Joey
Jordison and Dino Cazares) and had sessions called The All Star Sessions.This is
one of the songs from the anaversery album.I did my very best.Enjoy!

Intro/Chorus
e|-----------------------------------------------------|
b|-----------------------------------------------------|
g|-----------------------------------------------------|
d|-----------------------------------------------------|
a|---777777777777-666-333333-666-777-00000000-33333333-|
e|-----------------------------------------------------|

e|----------------------------|
b|----------------------------|
g|----------------------------|
d|----------------------------|
a|---22222222-66666666--------|
e|----------------------------|

e|-----------------------------------------------------|
b|-----------------------------------------------------|
g|-----------------------------------------------------|
d|-----------9-5-7-------------10-7-9------------------|
a|---77777777-------9--33333333--------10--00000000----|
e|-----------------------------------------------------|

e|-----------------------------------------------------|
b|-----------------------------------------------------|
g|-----------------------------------------------------|
d|--7-4-5----------------------------------------------|
a|--------7--22222222-66666666-------------------------|
e|-----------------------------------------------------|

Verse
e|-----------------------------------------------------|
b|-----------------------------------------------------|
b|-----------------------------------------------------|
g|-----------------------------------------------------|
d|--9-------9-------9-------9\8-----9-------9----------|
a|--7-------7-------7-------7\6-----7-------7----------|
e|----0-0-0---0-0-0---0-0-0-----------0-0-0---0-0-0----|

e|------------------------|
b|------------------------|
g|------------------------|
d|---5-5-5-5--8-8-8-8-----|
a|---3-3-3-3--6-6-6-6-----|
e|------------------------|

Pre Chorus
e|------------------------------------------------------|
B|------------------------------------------------------|
G|-5/7\5-----5/7\5---5-4---5\7\5------------------------|
D|-7/9\7-----7/9\7---7-5---7\9\7----------8-7-5-4-------|
A|-------0-0-------0-------------0-0-0-0--6-5-3-2-------|
E|------------------------------------------------------|


This goes with the solo
e|-------------------------------------------------------|
b|-------------------------------------------------------|
g|---9---------9---------9-----9---------9---------9-----|
d|---9---------9---------9-----9---------9---------9-----| 
a|---7-0-0-0-0-7-0-0-0-0-7-0-0-7-0-0-0-0-7-0-0-0-0-7-0-0-|
e|-------------------------------------------------------|

e|-------------------------------------------------------|
b|-------------------------------------------------------|
g|-------------------------------------------------------|
d|---6---------6---------6-----8---------8---------8-----| 
a|---3---------3---------3-----6---------6---------6-----|
e|-----0-0-0-0---0-0-0-0---0-0---0-0-0-0---0-0-0-0---0-0-|


| /  slide up
| \  slide down
| h  hammer-on
| p  pull-off
| ~  vibrato
| +  harmonic
| x  Mute note

Thats it! Im not good enough to do the solos yet but i promise it will be done.
If you have any questions email me strait away.

            
            
Suggest correction
Creating personal tab
Creating personal tab
You can edit any tab online and save it as your Personal.

You can edit, replace or remove any tab part or add personal notes – all changes will be seen only by you.

Personal tabs can be accessed anytime from any device, even offline.
Learn more »
Give kudos to tab author, rate the tab!
1 2 3 4 5
comments
print report bad tab
1 comment total.
0 reply
SkateTillDeath 83 Jan 02, 2006 04:15 AM

same with your tab, you made ur intro/chorus more complicated than it really is. the first part isn't right. listen closer. the second part can be played a little simpler and isn't completely right. i have a tab comin out for this song and its a little more accurate if u wanan check it out, it also has parts of the solos. good job otherwise. later man

guest
You may want to rate the tab now too:
select rating
Wanna post a correction for this tab? Suggest correction