Oops, an error
Loading. Please wait.

In The Fire tab

version 2
version 2

Whole song

Interactive

3,363 views 3 this week
1 commentread comment
1 2 3 4 5
3 more votes to show rating
add to favorites
×
Save as Personal and add changes to this tab that will be seen only by you. Learn more ›
×
You can save this tab as Personal to edit and correct it or add notes. All changes will be seen only by you. Learn more »
launch autoscroll
font size
0
reset
how to read this tab
guitar tuner
backing track
0:00
0:00
edit
Autoscroll
slow
fast
+/-
esc
set tempo
stop
Author
Difficulty
intermediate
Slowly workin on the solo but could use some opinions if its right,
someone could try it out and see if i'm makin it right, p.s. i'm
refering to the dvd also. This is all i got SO FAR, doesn't mean
i'm done, i just happen to be workin on it slowly. Feel free to
help, thanks, enjoi later

The blank staffs are where the missing parts of the solo are goin 

Intro:(0:00) 
Corey:(x2) 
E|----------------------------------------------------------------|| 
B|----------------------------------------------------------------|| 
G|----------------------------------------------------------------|| 
D|----------------------------------------------------------------|| 
A|-77777777-5555-3333--5555-0000-3333-2222-6666-------------------|| 
E|----------------------------------------------------------------|| 
Matt Solo 1:(sorry i didn't finish this) 
E|----------------------------------------------------------------|| 
B|-----------------------12-11~-----------------------------------|| 
G|-12~--11-----------12~--------12-11-9---------------------------|| 
D|---------13-12-10---------------------12--(Cont.)---------------|| 
A|----------------------------------------------------------------|| 
E|----------------------------------------------------------------|| 

Intro 2:(0:11) 
Corey:(this is right, watch DVD) 
E|----------------------------------------------------------------|| 
B|----------------------------------------------------------------|| 
G|----------------------------------------------------------------|| 
D|--------9----7----------10----9-----------5---4-----------------|| 
A|-777777--10----9----------12---10----------7---5---------666666-|| 
E|-----------------888888-----------555555----------777777--------|| 
Matt (Solo Cont.)(Sorry i didn't finish) 
E|-------10-10b---------------------------------------------------|| 
B|--------------13-12~-12-10--------------------------------------|| 
G|-11-12---------------------13p12-\(11)--(Cont.)-----------------|| 
D|-----------------------------^(Fast Pull Off)-------------------|| 
A|----------------------------------------------------------------|| 
E|----------------------------------------------------------------|| 

Verse:(0:23) 
Both Guitars: 
E|--------------------------------------------------------------|| 
B|--------------------------------------------------------------|| 
G|--------------------------------------------------------------|| 
D|-9-------9---------9-------9\8---9-------9--------5555--9999--|| 
A|-7-------7---------7-------7\6---7-------7--------3333--6666--|| 
E|---0-0-0---0-0-0-----0-0-0---------0-0-0---0-0-0--------------|| 
     . . .   . . .     . . .         . . .   . . . 
Verse Part 2: 
E|--------------------------------------------------8888--------|| 
B|--------------------------------------------------xxxx--------|| 
G|--------------------------------------------------5555--------|| 
D|-9-------9---------9-------9\8---9-------9--------------9999--|| 
A|-7-------7---------7-------7\6---7-------7--------------6666--|| 
E|---0-0-0---0-0-0-----0-0-0---------0-0-0---0-0-0--------------|| 
     . . .   . . .     . . .         . . .   . . . 
(x2)

Not Sure Bout This Part: 
Pre-Chorus:(0:46) 
Both Guitars: 
E|-8/10\8-----8/10\8----10---11----8/10\8-------------------------|| 
B|----------------------------------------------------------------|| 
G|-5/-7\5-----5/-7\5-----7----8----5/-7\5-------------------------|| 
D|-----------------------------------------------10--9--7--6------|| 
A|--------000--------00----0----00--------00000--10--9--7--6------|| 
E|------------------------------------------------8--7--5--4------|| 
(x2)

Both Guitars:
Repeat Corey's Intro 1 + 2: 
Repeat Verse: 
Repeat Pre-Chorus: 
Repeat Corey's Intro 1 + 2: 

Matt Solo: (2:18) With Wah Cry Baby Pedal 
E|----121212--121212-14-15-14---------------------------------------------------|| 
B|-12-------------------------171716b17--12~-12/(15)\10~-10/(13)\7~-7b888888888-|| 
G|------------------------------------------------------------------------------|| 
D|------------------------------------------------------------------------------|| 
A|------------------------------------------------------------------------------|| 
E|------------------------------------------------------------------------------|| 

E|---------------------------------------------------------------------------|| 
B|-15b17p12-15b17p12-15b17p12-15b17p12-15b17p12-15b17p12---------------------|| 
G|---------------------------------------------------------------------------|| 
D|---------------------------------------------------------------------------|| 
A|---------------------------------------------------------------------------|| 
E|---------------------------------------------------------------------------|| 
(Continued) 


Corey: (2:41) 
E|------------------------------------------------------------------------------|| 
B|-------------------------------------12121212-101010--------------------------|| 
G|-9-9h11p9~----9-12-11--9----11b12-9~-----------------12-11-9---9--------------|| 
D|-----------12------------12----------------------------------12-12-10-9----9*-|| 
A|------------------------------------------------------------------------12----|| 
E|------------------------------------------------------------------------------|| 
(Continued) 

E|----------------------------------------------------------------|| 
B|----------------------------------------------------------------|| 
G|----------------------------------------------------------------|| 
D|----------------------------------------------------------------|| 
A|----------------------------------------------------------------|| 
E|----------------------------------------------------------------|| 

Matt: (2:53)              |I don't think this parts right| 
E|---------------12-14b15~-15h17p15p12----------------------------------------|| 
B|---------10-12-----------------------15~-15h17p15p12-----------12-----------|| 
G|-9-11-12---------------------------------------------14~-14b15----14-12-----|| 
D|------------------------------------------------------------------------14--|| 
A|----------------------------------------------------------------------------|| 
E|----------------------------------------------------------------------------|| 
(Pretty Sure Bout This) 
E|----------------------------------------------------------------------|| 
B|-------------------------15b17r15b17----------------------------------|| 
G|-------12----12-14b15r14-----------------11---11/12\11-9----9-11~-12*-|| 
D|-12-14----14-------------------------9-9----9------------12-----------|| 
A|----------------------------------------------------------------------|| 
E|----------------------------------------------------------------------|| 
                                       . .    . 
Corey: Hard shit...This one will take time 
E|----------------------------------------------------------------|| 
B|----------------------------------------------------------------|| 
G|----------------------------------------------------------------|| 
D|----------------------------------------------------------------|| 
A|----------------------------------------------------------------|| 
E|----------------------------------------------------------------|| 
Corey:(3:27)Fun Riff 
E|----------------------------------------------------------------|| 
B|-12~-121212-13-12-10----8-8~-888-------7b8r7--------------------|| 
G|---------------------12----------12-11-------9-7h9--------------|| 
D|----------------------------------------------------------------|| 
A|----------------------------------------------------------------|| 
E|----------------------------------------------------------------|| 

E|-15-14----15\14-10/12-------------------------------------------|| 
B|-------15-------------------------------------------------------|| 
G|----------------------------Scale--down-then-up-again-----------|| 
D|----------------------------------------------------------------|| 
A|----------------------------------------------------------------|| 
E|----------------------------------------------------------------|| 

Repeat Corey's Intro 1 + 2: 

End On: 
E|-------------|| 
B|-------------|| 
G|-------------|| 
D|-9\\\\\\\\\--|| 
A|-7\\\\\\\\\--|| 
E|-------------|| 

E|----------------------------------------------------------------|| 
B|----------------------------------------------------------------|| 
G|----------------------------------------------------------------|| 
D|----------------------------------------------------------------|| 
A|----------------------------------------------------------------|| 
E|----------------------------------------------------------------|| 
`

            
            
Suggest correction
Creating personal tab
Creating personal tab
You can edit any tab online and save it as your Personal.

You can edit, replace or remove any tab part or add personal notes – all changes will be seen only by you.

Personal tabs can be accessed anytime from any device, even offline.
Learn more »
Give kudos to tab author, rate the tab!
1 2 3 4 5
comments
print report bad tab
1 comment total.
0 reply
SkateTillDeath 83 Mar 02, 2006 02:28 PM

CHECK OUT MY VERSION 4 OF THIS SONG, I TRIED TO GET THIS VERSION DELETED BUT THE MODERATORS OR W/E NEVER DID IT. SORRY FOR THE WASTE OF SPACE

guest
You may want to rate the tab now too:
select rating
Wanna post a correction for this tab? Suggest correction