Oops, an error
Loading. Please wait.

The Dagger solo tab

version 1
version 1

Solo

Interactive

2,228 views 3 this week
9 commentsread comments
1 2 3 4 5
x 6
add to favorites
×
Save as Personal and add changes to this tab that will be seen only by you. Learn more ›
×
You can save this tab as Personal to edit and correct it or add notes. All changes will be seen only by you. Learn more »
launch autoscroll
font size
0
reset
how to read this tab
guitar tuner
edit
Autoscroll
slow
fast
+/-
esc
set tempo
stop
Author
Difficulty
Jeff Waters' insane solo from The Dagger, Have fun!
Gtr III
|                              ~~
|  Q.        +E  +E    +S  S   Q.      Q    T T T T
|----------------------------|----------------------|
|----------------------------|----------------------|
|-[2]b4======(2)-(2)r==(2)p0-|----------------------|
|----------------------------|-2------12\---0h2p0h2-|
|----------------------------|--------12\-----------|
|----------------------------|----------------------|

                               ~~~~~~~~~~~~
| a E  a Q        +E. +S  S  S   +Q.     +E.      S  S S
|-------------------------0----|-------------------------|
|---------------------------/5-|-(5)-----(5)\------------|
|-0h2--0h2b4======(2)r(2)------|--------------------12---|
|------------------------------|----------------/14------|
|------------------------------|-------------------------|
|------------------------------|-------------------------|

                                         ~~
|  Q        E    Q.        +S   T  T  T  T  Q       +E.     T  S.
|-----------------------|----------------------------------12-------|
|----------15---15------|-(15)--------------------------------12----|
|-14b16=========14------|-(14)r16p14p12h14-12------(12)\------------|
|-----------------------|-------------------------------------------|
|-----------------------|-------------------------------------------|
|-----------------------|-------------------------------------------|

     ~~~~~
|  +E   Q         T   T  T  T  T  T  T.  S.    T.
|----------------12--------11---------------------|
|-(12)-15b17---------15p12----15p12---------------|
|---------------------------------------14--------|
|-----------------------------------14--------14--|
|-------------------------------------------------|
|-------------------------------------------------|


|  E      +E      S  S  Q.
|------------------------------|
|------------------------------|
|-12b14==(12)r-----------------|
|-12b14==(12)r---14-12-14\-----|
|------------------------------|
|------------------------------|

|  Q        Q        S  E.
|----------------------------|
|----------------------------|
|-12b14----12------/14s16----|
|-12-------12----------------|
|----------------------------|
|----------------------------|
  ~~
|  Q     T  T  T  T  T  T  T  T  T  T  T  T  T  T  T  T
|----------------17-------------------------------------|
|----------13h17----17p13-17p15-13p12-15p13p12----------|
|-14----14-------------------------------------14p12p10-|
|-------------------------------------------------------|
|-------------------------------------------------------|
|-------------------------------------------------------|


|  T  T  T   T  T  T  T  T  T  T  T  T  T  T  T   T  T  T  T  T  T  T  T  T
|---------------------------------------------------------------------------|
|----13p12------------------------------------------------------------------|
|-14--------14p12p10-14p12p10----12p10-------10-----------------------------|
|-----------------------------14-------14p12-----14p12p10-14p12p10----12p10-|
|------------------------------------------------------------------14-------|
|---------------------------------------------------------------------------|

                                     ~~~
|  T  T  T   T  T  T  T  T  T  T  T  T  Q.
|----------------------------------------------|
|----------------------------------------------|
|----------------------------------------------|
|----------------------------------------------|
|-14p12p10-----14p12p10----12p10---------------|
|-----------15----------15-------15p14-15\-----|


| T T T  T T T T T T T T T T T T  T T T T T T T T T
|---------------------------------------------------|
|-5h6p5--------5h8p5-------5h6p5--------5h8p5-------|
|--------7p5h7-------7p5h7--------7p5h7-------7p5h7-|
|---------------------------------------------------|
|---------------------------------------------------|
|---------------------------------------------------|


| T T T  T T T T T T T T T T T T  T T T T  T T T T T
|-5h8p5--------5h7p5-------5h8p5--------5h10p5-------|
|--------8---8-------8---8--------8---8--------8---8-|
|----------7-----------7------------7------------7---|
|----------------------------------------------------|
|----------------------------------------------------|
|----------------------------------------------------|


                                                         ~~~
|  Q.          +S  S  s s s s   S   T T S S  S   S      a  +Q    +E
|------------------5----------|---------------------------------------|
|-[8]b10=======(8)r===5-5-5-5-|---------------------------------------|
|-----------------------------|-7b9-7p5-----[5]-[5]b7==[5]r(5)---(5)\-|
|-----------------------------|---------7-5---------------------------|
|-----------------------------|---------------------------------------|
|-----------------------------|---------------------------------------|


|  S  S  S  S  S  S  S  S  S  S  S  S  S  S  S  S
|-------------------------------------------------|
|-------------------------------------------------|
|-14-12-10----10-12-14-12-10----10-12-14-12-14-12-|
|----------10----------------10-------------------|
|-------------------------------------------------|
|-------------------------------------------------|


|  S  S  S  S  S  S  S  S  S  S  S  S  S  S  S  S
|--------------------------------------------------|
|--------------------------------------------------|
|-14-12-10----10-12-14-12-10----10-12-14-12-14-12--|
|----------10----------------10--------------------|
|--------------------------------------------------|
|--------------------------------------------------|



|  S  S  S  S  S  S  S  S  S  S  S  S  S  S  S  S
|-------------------------------------------------|
|-15----------------15----------------15----15----|
|----12-10----10-12----12-10----10-12----12----12-|
|----------10----------------10-------------------|
|-------------------------------------------------|
|-------------------------------------------------|


              

|  S  S  S  S  S  S  S  S  S  S  S  S  Q
|----------------------------------------------|
|-15----15----------------10-------------------|
|----12----12-14-12-10-12----13-12-10-12-------|
|----------------------------------------------|
|----------------------------------------------|
|----------------------------------------------|



|  S  S  S  S  S  S  S  S  S  S  S  S  S  S  S  S
|-------------------------------------------------|
|-------------------------------------------------|
|-14-12-10----10-12-14-12-10----10-12-14-12-14-12-|
|----------10----------------10-------------------|
|-------------------------------------------------|
|-------------------------------------------------|


              

|  S  S  S  S  S  S  S  S  S  S  S  S  S  S  S  S
|-------------------------------------------------|
|-15----------------15----------------15----15----|
|----12-10----10-12----12-10----10-12----12----12-|
|----------10----------------10-------------------|
|-------------------------------------------------|
|-------------------------------------------------|


|  H                  +E     +S   S  S  S  S  S
|-15b17==============(15)r==(15)-10-15-13-12-10-|
|-----------------------------------------------|
|-----------------------------------------------|
|-----------------------------------------------|
|-----------------------------------------------|
|-----------------------------------------------|




|                          ~~
|  S  S  S  S  S  S  S  S  Q           +Q
|-15-13-12-10-12----------------------------------|
|----------------15-13-10-------------------------|
|-------------------------10----------(10)\-------|
|-------------------------------------------------|
|-------------------------------------------------|
|-------------------------------------------------|


|  S  S  S  S  S  S  S  S  S  S  S  S  S  S  S  S
|-17p13p10----13p10-------10----------------10h13-|
|----------17-------17p13----17p13p10-13h17-------|
|-------------------------------------------------|
|-------------------------------------------------|
|-------------------------------------------------|
|-------------------------------------------------|


|  S  S  S  S  S  S  S  S  S  S  S  S  S  S  S  S
|-17p13p10----13p10-------10----------------10h13-|
|----------17-------17p13----17p13p10-13h17-------|
|-------------------------------------------------|
|-------------------------------------------------|
|-------------------------------------------------|
|-------------------------------------------------|


|  S  S  S  S  S  S  S  S  S  S  S  S  S  S  S  S
|-17p13p10----13p10-------10----------------10h13-|
|----------17-------17p13----17p13p10-13h17-------|
|-------------------------------------------------|
|-------------------------------------------------|
|-------------------------------------------------|
|-------------------------------------------------|


|  S  S  S  S  S  S  S  S   Q            Q
|-------------------------------------------------|
|-15p10-13----11----------------------------------|
|----------13----11h14----------------------------|
|----------------------15-[15]----------15\-------|
|-------------------------------------------------|
|-------------------------------------------------|




|  H                +E.      S  S  S  S  S
|------------------------------------------|
|-12b13============(12)r====13-12-10-------|
|------------------------------------12-10-|
|------------------------------------------|
|------------------------------------------|
|------------------------------------------|


                                      ~~
|  S  S  S  S  S  S  S  S  S  S  S  S  Q
|--------------------------------------------|
|--------------------------------------------|
|--------------------------------------------|
|-13-12-10-12-10-----------------------------|
|----------------13-12-10--------------------|
|-------------------------13-12-10-13-10-----|

|  S  S  S  S  S  S  S  S  S   S  S  S  S  S  S   S
|---------------------------------------------------|
|---------------------------------------------------|
|--------------------------------------14-15-17-/15-|
|-------------------12-14-15-/14-15-17--------------|
|----------12-13-15---------------------------------|
|-12-13-15------------------------------------------|

  S  S  S  S  S   S  S  S  a  E  E  E  E  E  E
|--------------------------17h20-18-17-20-18-17-||
|-------15-17-18-/17-18s20----------------------||
|-17-18-----------------------------------------||
|-----------------------------------------------||
|-----------------------------------------------||
|-----------------------------------------------||

            
            
Suggest correction
Creating personal tab
Creating personal tab
You can edit any tab online and save it as your Personal.

You can edit, replace or remove any tab part or add personal notes – all changes will be seen only by you.

Personal tabs can be accessed anytime from any device, even offline.
Learn more »
comments
print report bad tab
9 comments total. Showing first comments.
0 reply
ph3n0m 214 Mar 22, 2006 12:36 PM

Tuning? Time Signature? Tempo?

0 reply
pigger 16 Mar 23, 2006 06:39 AM

Sorry, forgot to include it.

167

Low to High, C#, G#, C#, F#, A#, D#

+1 reply
Hand.Of.Blood 89 Mar 24, 2006 02:11 AM

this tab is sick! i dont know how you did it, but good job! 5 *'s

guest
You may want to rate the tab now too:
select rating
Wanna post a correction for this tab? Suggest correction