Oops, an error
Loading. Please wait.

The Dagger tab

version 3
version 3

Interactive

358 views 1 this week
2 commentsread comments
1 2 3 4 5
2 more votes to show rating
add to favorites
×
Save as Personal and add changes to this tab that will be seen only by you. Learn more ›
×
You can save this tab as Personal to edit and correct it or add notes. All changes will be seen only by you. Learn more »
launch autoscroll
font size
0
reset
how to read this tab
guitar tuner
edit
Autoscroll
slow
fast
+/-
esc
set tempo
stop
Author
Band - Roadrunner United
Song - The Dagger
Album - The All-star sessions ( Roadrunner Records 2005)

Tabbed By - Killswitch_mike - Only On Ultimate-Guitar

Tuning ; C-G-C-F-A-D

Intro:

D||----------||----------------------------------------------||
A||----------||*---------------------------------------------||
F||----------||----------------------------------------------|| Then ....
C||-<<<<<----||----------------------------------------------||
G||-<<<<<----||*--------9------2------9-------9-----2------9-||
C||-<<<<<----||--3-3333---33333--33333--33333--33333--33333--||


D||-----------------------------||
A||----------------------------*||
F||-----------------------------||
C||--8h7--8h7----9h8--9h8-------||
G||-----8----8-7----9----9-8---*||
C||-----------------------------||

Verse:

D||------------------------------------||
A||*----------------------------------*||
F||------------------------------------||
C||---3-3h2-3--8-7-7-4-7-4------5------||
G||*--3-3h2-3--8-7-7-4-7-4-----5-5\4--*||
C||---3-3h2-3--8-7-7-4-7-4--3-5--------||


Bass Riff;

F||----------------------------------------||
C||*--------------------------------------*||
G||*------------2p0-----------------------*||
C||--1p0-1-0-1p0----2-2p0-2-2p0-2-88888----||


D||------------------||
A||-6------/--18-----||
F||-9-x-30-/--21-x-30||
C||------------------||
G||------------------||
C||------------------||


D||----------------------------------------------||
A||*---------------------------------------------||
F||----------------------------------------------|| Then ....
C||----------------------------------------------||
G||*--------9------2------9-------9-----2------9-||
C||---3-3333---33333--33333--33333--33333--33333-||

D||-----------------------------||
A||----------------------------*||
F||-----------------------------||
C||--8h7--8h7----9h8--9h8-------||
G||-----8----8-7----9----9-8---*||
C||-----------------------------||


Verse:

D||------------------------------------||
A||*----------------------------------*||
F||------------------------------------||
C||---3-3h2-3--8-7-7-4-7-4------5------||
G||*--3-3h2-3--8-7-7-4-7-4-----5-5\4--*||
C||---3-3h2-3--8-7-7-4-7-4--3-5--------||


Bass Riff;

F||----------------------------------------||
C||*--------------------------------------*||
G||*------------2p0-----------------------*||
C||--1p0-1-0-1p0----2-2p0-2-2p0-2-88888----||


D||------------------||
A||-6------/--18-----||
F||-9-x-30-/--21-x-30||
C||------------------||
G||------------------||
C||------------------||


D||--------------------------------||
A||--------------------------------||
F||-------------------5h4\2-4h3----||
C||------5-----6-x-6---------------||
G||--------------------------------||
C||--1p0---2p0---------------------||


Breakdown;

D||------------------------||
A||*----------------------*||
F||------------------------||
C||------1~-----1~-3/4\1---||
G||*-----1~-----1~-3/4\1--*||
C||--1p0-1~-1p0-1~-3/4\1---||


Solo; Ha ha are you serious? well ill do the start....

D||--------------------------------------6^9-6^ < release Bend----||
A||--------------------------6h5-6^--0-5--------------------------||
F||-3^----------------44h5^---------------------------------------||
C||--------3~-----------------------------------------------------||
G||---------------------------------------------------------------||
C||---------------------------------------------------------------||

Are You Serious, the next bit? nah that will do , i havent got the guts for the next bit

D||--------------------------------||
A||--------------------------------||
F||-------------------5h4\2-4h3----||
C||------5-----6-x-6---------------||
G||--------------------------------||
C||--1p0---2p0---------------------||

Outro;

D||------------------------||
A||*----------------------*||
F||------------------------|| Repeat & Fade Out
C||------1~-----1~-3/4\1---||
G||*-----1~-----1~-3/4\1--*||
C||--1p0-1~-1p0-1~-3/4\1---||


There We Go, Rate & Comment Please, Cheers


            
            
Suggest correction
Creating personal tab
Creating personal tab
You can edit any tab online and save it as your Personal.

You can edit, replace or remove any tab part or add personal notes – all changes will be seen only by you.

Personal tabs can be accessed anytime from any device, even offline.
Learn more »
Give kudos to tab author, rate the tab!
1 2 3 4 5
comments
print report bad tab
2 comments total.
0 reply
atriviumfan 73 Apr 16, 2006 07:51 PM

Hello there, just to let u know it's in drop 'B'. have u got the dvd coz it's on that. killswitch engage rule!

0 reply
killswitch_mike 785 Apr 18, 2006 03:37 AM

it has no reference to being in drop b, yes killswitch rock, i could say the same for trivium

guest
You may want to rate the tab now too:
select rating
Wanna post a correction for this tab? Suggest correction