Oops, an error
Loading. Please wait.

Tired N Lonely intro tab

version 1
version 1

Intro

Whole song

691 views 1 this week
no commentswrite comment
1 2 3 4 5
x 3
add to favorites
×
Save as Personal and add changes to this tab that will be seen only by you. Learn more ›
×
You can save this tab as Personal to edit and correct it or add notes. All changes will be seen only by you. Learn more »
launch autoscroll
font size
0
reset
how to read this tab
guitar tuner
edit
Autoscroll
slow
fast
+/-
esc
set tempo
stop
e]----------------------------------------------------------------------|
b]----------------------------------------------------------------------|
g]----------------------------------------------------------------------|
d]----------------------------------------------------------------------|
a]->>>>>>>>--32(0)5--2-5/6------32(0)5--2-5/6------32(0)5--2-5/6--------|
d]->>>>>>>>--32(0)5--2-5/6------32(0)5--2-5/6------32(0)5--2-5/6--------|


e]----------------------------------------------------------------------|
b]----------------------------------------------------------------------|
g]----------------------------------------------------------------------|
d]----------------------------------------------------------------------|
a]-32--------32(0)5--2-5/6------32(0)5--2-5/6------32(0)5--2-5/6--------|
d]-32-5543*--32(0)5--2-5/6------32(0)5--2-5/6------32(0)5--2-5/6--------|


e]----------------------------------------------------------------------|
b]----------------------------------------------------------------------|
g]----------------------------------------------------------------------|
d]----5543*-------------------------------------------------------------|
a]-32-------------------------------------------------------------------|
d]-32-------------------------------------------------------------------|


the pinched harmonics(*) are optional vibrato can be just as good the verse is the same 
palm muted accept for the 5543 bit this is also an attempt at the start of the solo any 
send to trainwreck666@hotmail.co.uk

e]----------------------0-12-0-10-0-8---------------------------------------|
b]----------------0------------------------8h10-10^12--10p810^12------------|
g]---------------(3^)-------------------7h9---------------------------------|
d]--------------------------------------------------------------------------|
a]--------------------------------------------------------------------------|
d]-3332*--0022-x3-----------------------------------------------------------|

for the bend in brackets to it slowly until both notes are the same

            
            
Suggest correction
Creating personal tab
Creating personal tab
You can edit any tab online and save it as your Personal.

You can edit, replace or remove any tab part or add personal notes – all changes will be seen only by you.

Personal tabs can be accessed anytime from any device, even offline.
Learn more »
Give kudos to tab author, rate the tab!
1 2 3 4 5
comments
print report bad tab
guest
Wanna post a correction for this tab? Suggest correction