Oops, an error
Loading. Please wait.

Let Me Sign tab

23,521 views 3 this week
no commentswrite comment
1 2 3 4 5
3 more votes to show rating
add to favorites
×
Save as Personal and add changes to this tab that will be seen only by you. Learn more ›
×
You can save this tab as Personal to edit and correct it or add notes. All changes will be seen only by you. Learn more »
launch autoscroll
font size
0
reset
how to read this tab
guitar tuner
edit
Autoscroll
slow
fast
+/-
esc
set tempo
stop
-------------------------------------------------------------------------------
			    -----------------------------------------------
			  Let Me Sign--Rob Pattinson
-------------------------------------------------------------------------------
Tabbed by: Kevin Barleta
Email: kevin_bartles@hotmail.com

Tuning: Standard Capo on the 4th fret
Sorry if I got the lyrics wrong.
For guidance watch this video: http://www.youtube.com/watch?v=ykkLCJmcbq8


Standing by, broken tree  Arms are twisted, she's pointing at me
e|---------------------------------------------------------------------------|
B|---------------------------------------------------------------------------|
G|------------8-----------6-----------------8--------------------------------|
D|14-------------------------------------------------------------------------|
A|11----------9-----------7-----------------9--------------------------------|
E|9-----------7-----------5-----------------7--------------------------------|

  I was damned by the light coming, out her eyes she.. 
e|--------------------------------------------------------------|
B|--------------------------------------------------------------|
G|----------------------------------8---------------------------|
D|-------14-----------------------------------------------------|
A|-------11-------------------------9---------------------------|
E|-------9--------------------------7---------------------------|

  Spoke with the voice that,   disrupted the sky 
B|------------------------------------------------------------------|
G|-6----------------------------8-----------------------------------|
D|------------------------------------------------------------------|
A|-7----------------------------9-----------------------------------|
E|-5----------------------------7-----------------------------------|

she said come over here to, better shade,i'll wrap you in my arms, 
e|------------------------------------------------------------------|
B|------------------------------------------------------------------|
G|---------------------------8----------------6---------------------|
D|---------14-------------------------------------------------------|
A|---------11----------------9----------------7---------------------|
E|---------9-----------------7----------------5---------------------|

and you know that you'll be safe
e|-------------------------------------------------------------------|
B|--------------------------5----------------------------------------|
G|------6---------6---------6----------------------------------------|
D|-------------------------------------------------------------------|
A|------7---------7---------7----------------------------------------|
E|------5---------5--------------------------------------------------|


Let me sign                  let me sign                       (strum slowly)
e|---------------------------------------------------------------------------|
B|---------------------------------------------------------------------------|
G|-------------------8---------------6-----------------8---------------------|
D|-------14------------------------------------------------------14----------|
A|-------11----------9---------------7-----------------9---------11----------|
E|-------9-----------7---------------5-----------------7---------9-----------|


            
            
Suggest correction
Creating personal tab
Creating personal tab
You can edit any tab online and save it as your Personal.

You can edit, replace or remove any tab part or add personal notes – all changes will be seen only by you.

Personal tabs can be accessed anytime from any device, even offline.
Learn more »
Give kudos to tab author, rate the tab!
1 2 3 4 5
comments
print report bad tab
guest
Wanna post a correction for this tab? Suggest correction