Oops, an error
Loading. Please wait.

Anchor tab

version 2
version 2

Whole song

Interactive

10,685 views 96 this week
1 commentread comment
1 2 3 4 5
x 10
add to favorites
×
Save as Personal and add changes to this tab that will be seen only by you. Learn more ›
×
You can save this tab as Personal to edit and correct it or add notes. All changes will be seen only by you. Learn more »
launch autoscroll
font size
0
reset
how to read this tab
guitar tuner
edit
Autoscroll
slow
fast
+/-
esc
set tempo
stop
ANCHOR (6-String-Version)

I tabbed out a 6-string version of Rob Scallon´s Anchor, for all the people that don´t have the posibility
to play an 8-string guitar. Be aware, that the sound will be slightly different than playing it on
an 8-string, but it still sounds quite similar to the original and is very fun to play.
To get the right rhythm you should listen to the original while learning with the tabs.
Hope you enjoy it.



[Intro]

                      T          T           T                        T            T           T
     E ||-7-------------------------------------------------|--7----------------------------------------|
     C ||-7-----------16 p 11-------------------------------|--7------16 p 11---------------------------|
O    G ||-7----------------------17 p 12--------------------|--7-------------------17 p 12--------------|
     C ||-7----------------------------------19 p 7---------|--7-------------------------------16-------|
O    A ||-7-------------------------------------------------|--7----------------------------------------|
     F ||-7-------------------------------------------------|--7----------------------------------------|

                T           T           T               T             T           T           T
 --7------------------------------------------------|--------------------------------------------------------|
 --7-----------16 p 11------------------------------|--------------------------------------------------------|
 --7-----------------------17 p 12------------------|--------------------------------------------------------|
 --7-----------------------------------16 p 7-------|---17 p 7--------16 p 7------14 p 7-----12 p 7----------|
 --7------------------------------------------------|--------------------------------------------------------|
 --7------------------------------------------------|--------------------------------------------------------|

                T           T           T                            T         T           T
 --12---------------------------------------------------|----12----------------------------------------------|
 --12-----------16 p 4----------------------------------|----12------16 p 4----------------------------------|
 --12-----------------------17 p 5----------------------|----12----------------17 p 5------------------------|
 --12-----------------------------------19 p 7----------|----12----------------------------16----------------|
 --12---------------------------------------------------|----12----------------------------------------------|
 --12---------------------------------------------------|----12----------------------------------------------|

           T            T           T                     T          T         T          T
 --12--------------------------------------------|------------------------------------------------|
 --12------16 p 4--------------------------------|------------------------------------------------|
 --12------------------17 p 5--------------------|------------------------------------------------|  O
 --12------------------------------16 p 7--------|-------17 p 7------16 p 7----17 p 7-----19 p 7--|
 --12--------------------------------------------|------------------------------------------------|  O
 --12--------------------------------------------|------------------------------------------------|
                                                                                              REPEAT 1 TIME

                                                          T           T         T          T
                                                  |----------------------------------------------------------|
                                                  |----------------------------------------------------------|
                                                  |----------------------------------------------------------|
         2nd TIME:                                |-------14 p 7------12 p 7----11 p 7-----11//12------------|
                                                  |----------------------------------------------------------|
                                                  |----------------------------------------------------------|


[Verse]

     --7--------7-----X---------7----------------------------------------------------------------------------|
     --7--------7-----X---------7------------7------7------7-------7----------7------------------------------|
 O   --7 h 9----9-----X---------9------------9------9------9-------9----------7 h 9 p 7----------------------|
     --7--------7-----X---------7------------7------7------7-------7----------7-------------11 // 12-------0-|
 O   --7--------7-----X---------7------------7------7------7-------7----------7----------------------------0-|
     --7--------7-----X---------7--------------------------------------------------------------------------0-|

                                         H     H     H     H   H     H                     H
-----------------------------12----------12------------------------------------------------12--------------|
 ------0----------X----------12----------------12------------------------------------------12--------------|
 ------0----------X----------12----------------------12------------------------------------12--------------| O
 ------0----------X----------12---------------------------12-------------------------------12--------------|
 -----------------X----------12-------------------------------12---------------------------12--------------| O
 ----------------------------12--------------------------------------12---------0----------12--------------|

                                                                                                 H
--7-------7-------X-----7-----------------------------------------------------------------------12-----------|
--7-------7-------X-----7------------------------------------------------------0-------X--------12--------0--|
--7 h 9---9-------X-----9-----------------------------------9------------------0-----X----------12--------0--|
--7-------7-------X-----7-------------7----------------7--------7 // ---0------0---X------------12-----------|
--7-------7-------X-----7-------7-----------------7---------------------0----------------------------0-------|
--7-------7-------X-----7-------7------------7--------------------------0----------------------------0-------|

                      H   let ring           T                             H     H    H     H   H   H      H
---7-------7----X-----7----------------------------------------------------12---12------------------------12-|
 --7-------7----X-----7------------------------------------------0----X----12--------12-------------------12-|
---7 h 9---9----X-----7--------7 h 9 p 7 ------------------------0----X----12-------------12--------------12-|
---7-------7----X----------------------------11 // 12--p----0----0----X----12------------------12---------12-|
 --7-------7----X-------------------------------------------0--------------12----------------------12-----12-|
 --7-------7----X-------------------------------------------0------------------------------------------0--12-|

SLOW PART

-------------------------------------------------------------------------------------------------------------|
-------------------------------------------------------------------------------------------------------------|
-------------------------------------------------------------------------------------------------------------|
--16--16---x--16----16--------------12------14---16-// -----------11---11----X---11----11------------11 // 12|
--12--12---x--12--------12----------------------------------------11---11----X---11----------7---------------|
--12--12---x--12-------------12------------------------------------7----7----X----7---------------7----------|


-------------------------------------------------------------------------------------------------------------|
-------------------------------------------------------------------------------------------------------------|
---------------------------------------12 // 10 p 9----------------------------------------------------------|
--16--16---x--16------16------------------------------ --------11---11----X---11--------7 h 9 h 11 // 17-----|
--12--12---x--12----------12-----------------------------------11---11----X---11-----------------------------|
--12--12---x--12---------------12-------------------------------7-----7---X----7-----------------------------|

-------------------------------------------------------------------------------------------------------------|
-------------------------------------4-//--5--//--7---------------------------------------------7--//-5--//-4|
-------------------------------------5-//--7--//--9---------------------------------------------9-//--7-//--3|
--16--16---x--16----16-------------------------------------------11---11----X---11---11----------------------|
--12--12---x--12--------12---------------------------------------11---11----X---11-------7-------------------|
--12--12---x--12-------------12-----------------------------------7-----7---X---7------------7---------------|

-------------------------------------------------------------------------------------------------------------|
-------------------------------------------------------------------------------------------------------------|
-------------------------------------------------------------------------------------------------------------|
--16--16---x--16------16---12 h 14 h 16 //-19-----------------11---11----X---11-----------12-----11-----0----|
--12--12---x--12----------------------------------------------11---11----X---11------------------------------|
--12--12---x--12-----------------------------------------------7----7----X---7-------------------------------|

-------------------------------------------------------------------------------------------------------------|
-------------0----------------------------------------------------------------------0------------------------|
--14-------------14---------------------12--//--10--//--9----------9----------------9---------------------9--|
---0---12----------------0---------------0-------------------------0------7------------------0------0-----0--|
--12---12---------------------12--------10-//---8---//--7----------7------7------------------7------7-----7--|
--12---12----------------------------------------------------------7------7------------------7------7-----7--|

-------------------------------------------------------------|
-------------------------------------------------------------|
---10--//--12--//--14----------------------------------------|
----0--------------------------------------------------------|
----8--//--10---//-12----------------------------------------|
-------------------------------------------------------------|


                                                     H         H
--------------------------------------------------------------12---------------------------------------------|
-------------0--------------------------------------12-------------------------------------------------------|
--14-------------14-------------------------14--------------------------10--------------10-----------------9-|
---0---12----------------0-------------0--------------------------------0--------------------0-------------0-|
--12---12---------------------12----------------------------------------8------------------------8---------7-|
--12---12---------------------------------------------------------------9-------9--------------------9-----0-|


-------------------------------------------------------------------------------------------------------------|
-------------------------------------------------------------------------------------------------------------|
-------------------------------------------------------------------------------------------------------------|
--16--16---x--16----16--------------------14---12----14--16--------16--------16------------11-------11-//-12-|
--12--12---x--12--------12-----------------------------------------12---15-------12-------------10-----------|
--12--12---x--12-------------12----12------------------------------12----------------12----7-----------------|

                               H                                                   H
-------------------------------------------------------------------------------------------------------------|
-------------------------------------------------------------------------------------------------------------|
--------------------------------------12-//-10-//-9----------------------------------------------12-----16---|
--16-------------16-------------------------------------------16--------16------------------------7----------|
--12------15-----------12-------------------------------------12---15--------12------------10-----7----------|
--12--------------------------12------------------------------12------------------12-------------------------|

                                     H                                                  T
-----------------------------------------------------------------------------------------------------------|
-----------------------------------------------------------------------------------------------------------|
--17------------------17-----------------------------------------------------------------------------------|
--16------------------16-------------------------------------14-----12-----14---16------19-------16--------|
--12--------15---------------12----------------------------------------------------------------------------|
--12--------------------------------12--------------12-----------------------------------------------------|


-------------------------------------------------------------------------------------------------------|
---------------------------------------------------------------------0---------------------------------|
---17-----------------17--------------------------------------------12------------12-------------------|
---16-----------------16--------------------------------------------11------------11--//-12------------|
---12---------15---------------------12------------------------------------10--------------------------|
---12--------------------------------------------12----------------------------------------------------|

                                                  H
-------------------------------------------------------------------------------------------------------------|
-------------------------------------------------------------------------------------------------------------|
---17-----------------17------------------------------------------19--//-21-------22--------22---------------|
---16-----------------16------------------------------------------17--//-19--------0----0-------0------0-----|
---12---------15---------------------12-------------------------------------------22---------------22--------|
---12--------------------------------------------12----------------------------------------------------------|


-------------------------------------------------------------------------------------------------------------|
----------------------------0--------------------------------------------------------------------------0-----|
---21--//-14--------14---------14------------------------12--//-10--//-9------9------9-----------0-----9-----|
----0----------------0---------------0--------------------0-------------------0------------7-----7-----0-----|
---19--//-12--------12-------------------12--------------10--//-8--//--7------7------------7-----7-----7-----|
--------------------12--------------------------------------------------------7------------------------7-----|

                                            H      H
--------------------------------------------------12---------------------------------------------------------|
--------------0-----------------------------12---------------------------------------------------------------|
--14-------------14------------------14-----------------10------------10---------------------------9---------|
---0--------------------0--------0-----------------------0-------------------0----------------0--------------|
--12----12------------------12---------------------------8-----------------------8--------7------------------|
--12----12------------------------------------------------------9--------------------------------------2---0-|


-------------------------------------------------------------------------------------------------------------|
-------------------------------------------------------------------------------------------------------------|
--7--------7-----------------------7--//-9---------------10------------10---------------------------9--------|
--0-------------0---------0---------------------0--------0------------------0-------------------0------------|
--5------------------5-------------5--//-7---------------8-----------------------8----------7----------------|
--0----0-------------------------------------------------9------9----------------------9---------------2--0--|


------------------------------------------------0---------------------------0--------------------------------|
------------------------------------------------0------------------------------0----------------------0------|
--7--------7---------------------7--//-9--------9--//-10--------10----------------10---------------9---------|
--0-------------0---------0--------------------------------------0------------------------------0------------|
--5------------------5-----------5--//-7-------------------------8--------------------------7----------------|
--0----0---------------------------------------------------------9------9----------------7-------------2--0--|


-----------------------------------------------------0-------------------------0-----------------------------|
-----------------------------------------------------0---------------------------0--------------------0------|
--7--------7-----------------------7--//-9-----------9-----------10----------------10--------------9---------|
--0-------------0---------0--------------------------------------0------------------------------0------------|
--5------------------5-------------5--//-7-----------------------8---------------------------7---------------|
--0----0---------------------------------------------------------9-------9----------------7-------------2--0-|


-------------------------------------------------------------------------------------------------------------|
-------------------------------------------------------------------------------------------------------------|
----7--------7-----------------------7--//-9---------7--//-9--------7--//-9----------------------------------|
----0-------------0---------0---------------------0---------------0-------------0----------------------------|
----5------------------5-------------5--//-7---------5--//-7--------7--//-9----------------------------------|
----0----0---------------------------------------------------------------------------------------------------|

POWER PART

     ---0-----------0------------------------------------------------------------0---------------------------|
     ---0---------------0------------------------------------------------------------0-----------------------|
O    ---0--------------------0------------------------------------------------------------0------------------|
     ---0------0-----------------------0------7----0----7----0---------------0-------------------------0---0-|
O    ---0------0------------------------------7----0----7----0---------------0---------------------7---------|
     ---0------0------------------------------7----0----7----0----------0----0-----------------7-------------|


----------------------0------------0-------------------------------------------------------------0-----------|
----------------------0-----------------0-----------------------------------------------------------0--------|
----------------------0----------------------0----------------------------------------------------------0----|
----------------------0-----0---------------------0-----------7-----0----7---0-------------------------------|
---7 h 8 h 10---------0-----0---------------------------------7-----0----7---0-------------------------------|
----------------------------0---------------------------------7-----0----7---0-------2-----2---------------2-|


-------------------------------------------------------------0---------------------|
---------------------------------0--------------------0----------------------------|
-----------------------0------------------------0------------------I---------------|       O
------------0------------------------------------------------------I---------------|            REPEAT 1 TIME
-------------------------------------------------------------------I---------------|       O
---2--------2---------2--------2-------4-------------------------------------------|


-------------------------------------------------------------------------------------------------------------|
-------------------------------------------------------------------------------------------------------------|
-------------------------------------------------------------------------------------------------------------|
--0--------9 p 0-----0---------------0-------------0-------------0------7-----7----9 p 7------7------------7-|
--0----0--------------------10 p 0--------8 p 0----------7 p 0----------7-----7--------------------10 p 7--7-|
--0----0-------------0---------------0-------------0-------------0------7-----7---------------7------------7-|


--------------------------------------------------------|
--------------------------------------------------------|
--------------------------------------------------------|
---11 p 7-------7---------12----------------------------|
----------------7---------------------------------------|
----------------7---------------------------------------|


--------------------------------------------------------------------------------7------------------7--//--12-|
-------------------------------------------------------------------------------------7-------------7--//--12-|
-----------------------------------------------------------------------------------------9------9--9--//--14-|
--0--------9 p 0----0---------------0-------------0------------0-----7-----7----------------7------7--//--12-|
--0----0-------------------10 p 0--------8 p 0----------7 p 0--------7-----7----------------7------7--//--12-|
--0----0------------0---------------0-------------0------------0-----7-----7----------------7------7--//--12-|


--0----------------------------------------------------------------------------------------------------------|
--0----------------------------------------------------------------------------------------------------------|
--0----------------------------------------------------------------------------------------------------------|
--0----0--------9 p 0-----0--------------0-----------0-----------0-------7---7-----9 p 7-----7---------------|
--0----0-----------------------10 p 0-------8 p 0-------7 p 0------------7---7-----------------------10 p 7--|
--0----0------------------0--------------0------------0----------0-------7---7---------------7---------------|


---------------------------------------------------------------8 p 0----10 p 0--------12 p 0---------12 p 0--|
-------------------------------------------------------------------------------------------------------------|
---------------------------------------------------------------9 p 0----10 p 0--------12 p 0---------12 p 0--|
--7--------11p7------------7----------12-------------0---0------------------------0--------------0-----------|
--7------------------------7-------------------------0---0---------------------------------------------------|
--7------------------------7-------------------------0---0------------------------0--------------0-----------|


------------------7-----------------------------------7--//--0------------------------------------------|
----------------------7-------------------------------7--//--0------------------------------------------|
---------------------------9--------9-----------------9--//--4--//--5-----------------------------------|
--7----7---------------------------7------------------7--//--0------------------------------------------|
--7----7---------------------------7------------------7--//--0------------------------------------------|
--7----7---------------------------7------------------7--//--0------------------------------------------|

REPEAT THE INTRO PART 2 TIMES

THERE YOU GO



************************************

Legend:

T   =  tap this note with your right hand
p  =  pull off
h  = hammer on
X  = muted note or slap
// =  slide up or down
H   =  play this note as a harmonic by laying your finger over the fret

************************************

            
            
Suggest correction
Creating personal tab
Creating personal tab
You can edit any tab online and save it as your Personal.

You can edit, replace or remove any tab part or add personal notes – all changes will be seen only by you.

Personal tabs can be accessed anytime from any device, even offline.
Learn more »
comments
print report bad tab
1 comment total.
0 reply
TheWho2 500 Feb 20, 2017 07:44 PM

something about the slow part seems off

guest
You may want to rate the tab now too:
select rating
Wanna post a correction for this tab? Suggest correction