Oops, an error
Loading. Please wait.

Summer tab

version 1
version 1

Whole song

Interactive

31,540 views 246 this week
8 commentsread comments
1 2 3 4 5
x 69
add to favorites
×
Save as Personal and add changes to this tab that will be seen only by you. Learn more ›
×
You can save this tab as Personal to edit and correct it or add notes. All changes will be seen only by you. Learn more »
launch autoscroll
font size
0
reset
how to read this tab
guitar tuner
edit
Autoscroll
slow
fast
+/-
esc
set tempo
stop
Author
Unregistered
I finally figured out how to take whats on guitar pro and put it into regular tabs

hope this helps you
-rob

Track 1

e|----------------------|--2----------------|--3-----------x--0--------|
B|--<12>----------------|--L----------------|-----0--------x-----0-----|
G|--<12>----------------|--L----------------|--------0-----x--------0--|
D|--<12>----------------|--L----------------|--0-----------------------|
A|----------------------|-------------------|-----------x--------------|
E|----------------------|-------------------|-----------x--------------|

e|--2-----------x--0--------|--3-----------x--0--------|
B|-----0--------x-----0-----|-----0--------x-----0-----|
G|--------0-----x--------0--|--------0-----x--------0--|
D|--0-----------------------|--0-----------------------|
A|-----------x--------------|-----------x--------------|
E|-----------x--------------|-----------x--------------|

e|--2-----------5-----7-----|--3-----------x--0--------|
B|-----0--------7-----8-----|-----0--------x-----0-----|
G|--------0-----------------|--------0-----x--------0--|
D|--0--------0-----0-----0--|--0-----------------------|
A|--------------------------|-----------x--------------|
E|--------------------------|-----------x--------------|

e|--2-----------x--0--------|--3-----------x--0--------|
B|-----0--------x-----0-----|-----0--------x-----0-----|
G|--------0-----x--------0--|--------0-----x--------0--|
D|--0-----------------------|--0-----------------------|
A|-----------x--------------|-----------x--------------|
E|-----------x--------------|-----------x--------------|

e|--2-----------7--------------------|--0-----------x-----------|
B|-----0--------8--------------<12>--|--------------x--0--------|
G|--------0--------------<12>--------|-----0--------x-----0-----|
D|--0--------0-----<12>--------------|--2-----2--------------0--|
A|-----------------------------------|--3-----------------------|
E|-----------------------------------|--3--------0--------------|

e|--------------x-----------|--------------x-----------|
B|--0-----------x--0--------|--0-----------x--0--------|
G|-----0--------x-----0-----|-----0--------x-----0-----|
D|--2-----2--------------0--|--2-----2--------------0--|
A|--3-----------------------|--3-----------------------|
E|--3--------0--------------|--3--------0--------------|

e|--------------------------|--0-----------x-----------|
B|--0--------0--0--------0--|--------------x--0--------|
G|-----0-----------0--------|-----0--------x-----0-----|
D|--2-----2-----4-----4-----|--2-----2--------------0--|
A|--3-----------5-----------|--3-----------------------|
E|--3-----------5-----------|--3--------0--------------|

e|--------------x-----------|--------------x-----------|
B|--0-----------x--0--------|--0-----------x--0--------|
G|-----0--------x-----0-----|-----0--------x-----0-----|
D|--2-----2--------------0--|--2-----2--------------0--|
A|--3-----------------------|--3-----------------------|
E|--3--------0--------------|--3--------0--------------|

e|--------------------------|--3-----------x--0--------|
B|--0--------0--0--------0--|-----0--------x-----0-----|
G|-----0-----------0--------|--------0-----x--------0--|
D|--2-----2-----4-----4-----|--0-----------------------|
A|--3-----------5-----------|-----------x--------------|
E|--3-----------5-----------|-----------x--------------|

e|--2-----------x--0--------|--3-----------x--0--------|
B|-----0--------x-----0-----|-----0--------x-----0-----|
G|--------0-----x--------0--|--------0-----x--------0--|
D|--0-----------------------|--0-----------------------|
A|-----------x--------------|-----------x--------------|
E|-----------x--------------|-----------x--------------|

e|--2-----------5-----7-----|--3-----------x--0--------|
B|-----0--------7-----8-----|-----0--------x-----0-----|
G|--------0-----------------|--------0-----x--------0--|
D|--0--------0-----0-----0--|--0-----------------------|
A|--------------------------|-----------x--------------|
E|--------------------------|-----------x--------------|

e|--2-----------x--0--------|--3-----------x--0--------|
B|-----0--------x-----0-----|-----0--------x-----0-----|
G|--------0-----x--------0--|--------0-----x--------0--|
D|--------------------------|--------------------------|
A|--0--------L--------------|-----------x--------------|
E|-----------x--------------|--3--------L--------------|

e|--2-----------8-----10----|--3-----------x--0--------|
B|-----0--------5------7----|-----0--------x-----0-----|
G|--------0-----------------|--------0-----x--------0--|
D|--0--------0-----0--------|--0-----------------------|
A|--------------------------|-----------x--------------|
E|--------------------------|-----------x--------------|

e|--2-----------x--0--------|--3-----------x--0--------|
B|-----0--------x-----0-----|-----0--------x-----0-----|
G|--------0-----x--------0--|--------0-----x--------0--|
D|--------------------------|--------------------------|
A|--3--------L--------------|--2--------L--------------|
E|-----------x--------------|-----------x--------------|

e|--2-----------5-----7\----|--3-----------x--0--------|
B|-----0--------7-----8\----|-----0--------x-----0-----|
G|--------0-----------------|--------0-----x--------0--|
D|-----------0-----0--------|--0-----------------------|
A|--------------------------|-----------x--------------|
E|--3-----------------------|-----------x--------------|

e|--2-----------x--0--------|--3-----------x--0--------|
B|-----0--------x-----0-----|-----0--------x-----0-----|
G|--------0-----x--------0--|--------0-----x--------0--|
D|--------------------------|--------------------------|
A|--0--------L--------------|-----------x--------------|
E|-----------x--------------|--3--------L--------------|
                  
e|--2-----------7--------------------|--0-----------x-----------|
B|-----0--------8--------------<12>--|--------------x--0--------|
G|--------0--------------<12>--------|-----0--------x-----0-----|
D|-----------0-----<12>--------------|--2-----2--------------0--|
A|-----------------------------------|--3-----------------------|
E|--2--------------------------------|--3--------0--------------|

e|--------------x-----------|--------------x-----------|
B|--0-----------x--0--------|--0-----------x--0--------|
G|-----0--------x-----0-----|-----0--------x-----0-----|
D|--2-----2--------------0--|--2-----2--------------0--|
A|--3-----------------------|--3-----------------------|
E|--3--------0--------------|--3--------0--------------|

e|--------------------------|--0-----------x-----------|
B|--0--------0--0--------0--|--------------x--0--------|
G|-----0-----------0--------|-----0--------x-----0-----|
D|--2-----2-----4-----4-----|--2-----2--------------0--|
A|--3-----------5-----------|--3-----------------------|
E|--3-----------5-----------|--3--------0--------------|

e|--------------x-----------|--------------x-----------|--------------2------|
B|--0-----------x--0--------|--0-----------x--0--------|--0--------0--0------|
G|-----0--------x-----0-----|-----0--------x-----0-----|-----0--------0------|
D|--2-----2--------------0--|--2-----2--------------0--|--2-----2-----4------|
A|--3-----------------------|--3-----------------------|--3-----------5------|
E|--3--------0--------------|--3--------0--------------|--3-----------5------|

e|-----------------------------|-----------------------------|
B|--0--------------------------|--0--------------------------|
G|-----0-----------------------|-----0-----------------------|
D|--------4----------12p--4----|--------4----------12p--4----|
A|--5--------14p--5------------|--5--------12p--5------------|
E|-----------------------------|-----------------------------|

e|-----------------------------|-----------------------------|
B|--0--------------------------|--0--------------------------|
G|-----0-----------------------|-----0-----------------------|
D|--------4----------12p--4----|--------4----------9p--4s----|
A|--5--------10p--5------------|--5--------10p--5------------|
E|-----------------------------|-----------------------------|

e|---------------------------|-----------------------------|
B|--0------------------------|--0--------------------------|
G|-----0---------------------|-----0-----------------------|
D|--------2------------------|--------2---9---2---9---2----|
A|--3------------------------|--3--------10p--3--10p--3----|
E|-----------8p--3--5p--3----|-----------------------------|

e|---------------------------|---------------------------|
B|--0------------------------|--0------------------------|
G|-----0-----9---0--9---0----|-----0-----7---0--7---0----|
D|--------2--7p--2--7p--2----|--------2--9p--2--9p--2----|
A|--3------------------------|--3------------------------|
E|---------------------------|---------------------------|

e|-----------------------------|--2--------------------------|
B|--0--------------------------|-----0-----------------------|
G|-----0-----------------------|--------0--------------------|
D|--------4----------12p--4----|-------------------12p--4----|
A|--5--------14p--5------------|--5--------12p--5------------|
E|-----------------------------|-----------------------------|

e|-----------------------------|--2--------------------------|
B|--0--------------------------|-----0-----------------------|
G|-----0-----------------------|--------0--------------------|
D|--------4----------12p--4----|-------------------9p--4\----|
A|--5--------10p--5------------|--5--------10p--5------------|
E|-----------------------------|-----------------------------|

e|--0------------------------|-----------------------------|
B|-----0---------------------|--0--------------------------|
G|--------0------------------|-----0-----------------------|
D|--2------------------------|--------2---9---2---9---2----|
A|--3------------------------|--3--------10p--3--10p--3----|
E|-----------8p--3--5p--3----|-----------------------------|
       
e|--0------------------------|-----------------x--------|
B|-----0---------------------|--0--------0---<12>-------|
G|--------0--9---0--9---0----|-----0---------<12>-------|
D|-----------7p--2--7p--2----|--------2--------x--------|
A|--3------------------------|--3--------------x--------|
E|---------------------------|-----------------x--------|

e|--3-----------x--0--------|--2-----------x--0--------|
B|-----0--------x-----0-----|-----0--------x-----0-----|
G|--------0-----x--------0--|--------0-----x--------0--|
D|--0-----------------------|--0-----------------------|
A|-----------x--------------|-----------x--------------|
E|-----------x--------------|-----------x--------------|

e|--3-----------x--0--------|--2-----------5-----7-----|
B|-----0--------x-----0-----|-----0--------7-----8-----|
G|--------0-----x--------0--|--------0-----------------|
D|--0-----------------------|--0--------0-----0-----0--|
A|-----------x--------------|--------------------------|
E|-----------x--------------|--------------------------|

e|--3-----------x--0--------|--2-----------x--0--------|
B|-----0--------x-----0-----|-----0--------x-----0-----|
G|--------0-----x--------0--|--------0-----x--------0--|
D|--0-----------------------|--------------------------|
A|-----------x--------------|--0--------L--------------|
E|-----------x--------------|-----------x--------------|

e|--3-----------x--0--------|--2-----------8-----10----|
B|-----0--------x-----0-----|-----0--------5------7----|
G|--------0-----x--------0--|--------0-----------------|
D|--------------------------|--0--------0-----0--------|
A|-----------x--------------|--------------------------|
E|--3--------L--------------|--------------------------|

e|--3-----------x--0--------|--2-----------x--0--------|
B|-----0--------x-----0-----|-----0--------x-----0-----|
G|--------0-----x--------0--|--------0-----x--------0--|
D|--0-----------------------|--------------------------|
A|-----------x--------------|--3--------L--------------|
E|-----------x--------------|-----------x--------------|

e|--3-----------x--0--------|--2-----------5-----7\----|
B|-----0--------x-----0-----|-----0--------7-----8\----|
G|--------0-----x--------0--|--------0-----------------|
D|--------------------------|-----------0-----0--------|
A|--2--------L--------------|--------------------------|
E|-----------x--------------|--3-----------------------|

e|--3-----------x--0--------|--2-----------x--0--------|
B|-----0--------x-----0-----|-----0--------x-----0-----|
G|--------0-----x--------0--|--------0-----x--------0--|
D|--0-----------------------|--------------------------|
A|-----------x--------------|--0--------L--------------|
E|-----------x--------------|-----------x--------------|

e|--3-----------x--0--------|--2-----------7--------------------|
B|-----0--------x-----0-----|-----0--------8--------------<12>--|
G|--------0-----x--------0--|--------0--------------<12>--------|
D|--------------------------|-----------0-----<12>--------------|
A|-----------x--------------|-----------------------------------|
E|--3--------L--------------|--2--------------------------------|

e|--0-----------x-----------|--------------x-----------|
B|--------------x--0--------|--0-----------x--0--------|
G|-----0--------x-----0-----|-----0--------x-----0-----|
D|--2-----2--------------0--|--2-----2--------------0--|
A|--3-----------------------|--3-----------------------|
E|--3--------0--------------|--3--------0--------------|

e|--------------x-----------|--------------------------|
B|--0-----------x--0--------|--0--------0--0--------0--|
G|-----0--------x-----0-----|-----0-----------0--------|
D|--2-----2--------------0--|--2-----2-----4-----4-----|
A|--3-----------------------|--3-----------5-----------|
E|--3--------0--------------|--3-----------5-----------|

e|--0-----------x-----------|--------------x-----------|
B|--------------x--0--------|--0-----------x--0--------|
G|-----0--------x-----0-----|-----0--------x-----0-----|
D|--2-----2--------------0--|--2-----2--------------0--|
A|--3-----------------------|--3-----------------------|
E|--3--------0--------------|--3--------0--------------|

e|--------------x-----------|--------------2--------|
B|--0-----------x--0--------|--0--------0--0--------|
G|-----0--------x-----0-----|-----0--------0--------|
D|--2-----2--------------0--|--2-----2-----4--------|
A|--3-----------------------|--3-----------5--------|
E|--3--------0--------------|--3-----------5--------|

e|-----------------------------|-----------------------------|
B|--0--------------------------|--0--------------------------|
G|-----0-----------------------|-----0-----------------------|
D|--------4----------12p--4----|--------4----------12p--4----|
A|--5--------14p--5------------|--5--------12p--5------------|
E|-----------------------------|-----------------------------|

e|-----------------------------|-----------------------------|
B|--0--------------------------|--0--------------------------|
G|-----0-----------------------|-----0-----------------------|
D|--------4----------12p--4----|--------4----------9p--4s----|
A|--5--------10p--5------------|--5--------10p--5------------|
E|-----------------------------|-----------------------------|

e|---------------------------|-----------------------------|
B|--0------------------------|--0--------------------------|
G|-----0---------------------|-----0-----------------------|
D|--------2------------------|--------2---9---2---9---2----|
A|--3------------------------|--3--------10p--3--10p--3----|
E|-----------8p--3--5p--3----|-----------------------------|

e|---------------------------|---------------------------|
B|--0------------------------|--0------------------------|
G|-----0-----9---0--9---0----|-----0-----7---0--7---0----|
D|--------2--7p--2--7p--2----|--------2--9p--2--9p--2----|
A|--3------------------------|--3------------------------|
E|---------------------------|---------------------------|

e|-----------------------------|--2--------------------------|
B|--0--------------------------|-----0-----------------------|
G|-----0-----------------------|--------0--------------------|
D|--------4----------12p--4----|-------------------12p--4----|
A|--5--------14p--5------------|--5--------12p--5------------|
E|-----------------------------|-----------------------------|

e|-----------------------------|--2--------------------------|
B|--0--------------------------|-----0-----------------------|
G|-----0-----------------------|--------0--------------------|
D|--------4----------12p--4----|-------------------9p--4\----|
A|--5--------10p--5------------|--5--------10p--5------------|
E|-----------------------------|-----------------------------|

e|--0------------------------|-----------------------------|
B|-----0---------------------|--0--------------------------|
G|--------0------------------|-----0-----------------------|
D|--2------------------------|--------2---9---2---9---2----|
A|--3------------------------|--3--------10p--3--10p--3----|
E|-----------8p--3--5p--3----|-----------------------------|
                           
e|--0------------------------|-----------------x--------|-------------------||
B|-----0---------------------|--0--------0---<12>--------|--L---------------||
G|--------0--9---0--9---0----|-----0---------<12>--------|--L---------------||
D|-----------7p--2--7p--2----|--------2--------x--------|-------------------||
A|--3------------------------|--3--------------x--------|-------------------||
E|---------------------------|-----------------x--------|-------------------||


************************************

| x  Dead note
| \  Slide down
| p  Pull-off
| <> Natural Harmonic
| s  Slide

************************************

            
            
Suggest correction
Creating personal tab
Creating personal tab
You can edit any tab online and save it as your Personal.

You can edit, replace or remove any tab part or add personal notes – all changes will be seen only by you.

Personal tabs can be accessed anytime from any device, even offline.
Learn more »
comments
print report bad tab
8 comments total. Showing first comments. show 1 bad comment
+12 reply
Zonified 69 Aug 19, 2008 06:28 PM

Awesome!!!

+13 reply
bucketheadShred 106 Jul 05, 2009 06:52 AM

Sorry, but this guy doesn't suck, he actually rocks.
Why does this tab have 4 stars?

guest
Wanna post a correction for this tab? Suggest correction