Oops, an error
Loading. Please wait.

Hard On You chords

1,872 views 3 this week
no commentswrite comment
1 2 3 4 5
x 3
add to favorites
×
Save as Personal and add changes to this tab that will be seen only by you. Learn more ›
×
You can save this tab as Personal to edit and correct it or add notes. All changes will be seen only by you. Learn more »
launch autoscroll
font size
0
reset
transpose
0
reset
simplify chords
display chords
guitar tuner
edit
Autoscroll
slow
fast
+/-
esc
set tempo
stop
Strumming
There is no strumming pattern for this song yet. and get +5 IQ
Tabbed by Greg22
Standard Tuning
"Hard On You" is off the album "Cradlesong" by Rob Thomas.  
It is played in the key of F.  I've done it here in D with a capo 3 so that
it will match the key of F on the album.

Capo 3
(All tab relative to capo)

Intro:
e|--2--5--0--2----2--5--0--x----|
B|--3--5--2--3----3--5--2--3----|
G|--4--6--2--2----4--6--2--2----|
D|--4--7--2--0----4--7--2--0----|
A|--2--7--0-------2--7--0-------|
E|-----5-------------5----------|

Bm                    A     D
You're the best thing I ever knew
Bm                     A      D
You do everything that I cant do
Bm              A       D
Sometimes I get lost in my blue
Bm                      A       D
Please forgive me if im hard on you
Bm                      A       D
Please forgive me if im hard on you

(Same as Intro):
e|--2--5--0--2----2--5--0--x----|
B|--3--5--2--3----3--5--2--3----|
G|--4--6--2--2----4--6--2--2----|
D|--4--7--2--0----4--7--2--0----|
A|--2--7--0-------2--7--0-------|
E|-----5-------------5----------|

Bm              A         D
You and me got so much to prove
Bm                         A      D
You're the only thing that I cant lose
Bm                      A           D
The nights are peaceful here in our room
Bm                      A       D
Please forgive me if im hard on you
Bm                      A       D
Please forgive me if im hard on you

G           Bm                     D            F#m              G
Cuz I didnt mean to be mean when I said all the things I said to you
              Bm                      A
But maybe the worst is the best I can do
Asus A
With you
G           Bm                   D
And I never want you to go but I know
          F#m            G
I've been moving way too slow
            Bm                      A    Asus A
And I fall apart cuz its all that I know

Solo:

e|--2--5--0--2----2--5--0--x----|
B|--3--5--2--3----3--5--2--3----|
G|--4--6--2--2----4--6--2--2----|
D|--4--7--2--0----4--7--2--0----|
A|--2--7--0-------2--7--0-------|
E|-----5-------------5----------|


e|--2--5--0--2----0----0--------|
B|--3--5--2--3----2--3----------|
G|--4--6--2--2----2-------------|
D|--4--7--2--0----2-------------|
A|--2--7--0-------0-------------|
E|-----5------------------------|


Bm                A       D
Where you running now baby blue
Bm                         A        D
Please dont let it take me far from you
Bm                 A          D
I've been restless ive been a fool
Bm                      A       D
Please forgive me if im hard on you
Bm                      A       D
Please forgive me if im hard on you
Bm                      A       D
Please forgive me if im hard on you
Bm                      A       D
Please forgive me if im hard on you

source: http://www.lyricsondemand.com/r/robthomaslyrics/hardonyoulyrics.html

            
            
Suggest correction
Creating personal tab
Creating personal tab
You can edit any tab online and save it as your Personal.

You can edit, replace or remove any tab part or add personal notes – all changes will be seen only by you.

Personal tabs can be accessed anytime from any device, even offline.
Learn more »
Give kudos to tab author, rate the tab!
1 2 3 4 5
comments
print report bad tab
guest
You may want to rate the tab now too:
select rating
Wanna post a correction for this tab? Suggest correction