Oops, an error
Loading. Please wait.

Living Dead Girl intro tab

version 1
version 1

Intro

Whole song

Interactive

20,903 views 3 this week
2 commentsread comments
1 2 3 4 5
x 14
add to favorites
×
Save as Personal and add changes to this tab that will be seen only by you. Learn more ›
×
You can save this tab as Personal to edit and correct it or add notes. All changes will be seen only by you. Learn more »
launch autoscroll
font size
0
reset
how to read this tab
guitar tuner
edit
Autoscroll
slow
fast
+/-
esc
set tempo
stop
Author
Unregistered
e||---------------------------------------------------------------- 
B||---------------------------------------------------------------- 
G||---------------------------------------------------------------- 
D||4-4----3----2------4-4----3----2------4-4----3----2------------- 
A||4-4----3----2------4-4----3----2------4-4----3----2------------- 
E||2-2----1----0------2-2----2----0------2-2----1----0------------- 
 
 
e|--------------||-------------------------------------------------|| 
B|--------------||-------------------------------------------------|| 
G|--------------||-------------------------------------------------|| 
D|--------------||----------4----------4----------4----------4-----|| 
A|-3-3\\\9-9-9--||----------4----------4----------4----------4-----|| 
E|--------------||----------2----------2----------2----------2-----|| 
                repeat        listen to the cd to find out where to play this part 
 
e|--------|| 
B|--------|| 
G|--------|| 
D|--------|| 
A|---4\\\8|| 
E|--------|| 
  play once than back to start

            
            
Suggest correction
Creating personal tab
Creating personal tab
You can edit any tab online and save it as your Personal.

You can edit, replace or remove any tab part or add personal notes – all changes will be seen only by you.

Personal tabs can be accessed anytime from any device, even offline.
Learn more »
comments
print report bad tab
2 comments total.
0 reply
Ibanezgrrl 110 Dec 01, 2002 07:00 PM

if you just tuned the 6th string(top e) down to d, which i believe rob zombie does play in drop d, then it'll be alot easier and the switch to the next note will sound better as well(just my opinion)

e
b
g
d||4-4----3----2
a||4-4----3----2
d||4-4----3----2

0 reply
Ribica 103 Aug 23, 2007 12:00 AM

I agree with post above me. Whenever I play a song using mostly the last three wires ( Very often heavy metal of such ) I always tune my guitar to drop D, because it gives me variability, and two deeper notes, and it is much easier to play like that.

guest
Wanna post a correction for this tab? Suggest correction