Oops, an error
Loading. Please wait.

Sick Bubblegum tab

version 1
version 1

Whole song

Interactive

14,453 views 9 this week
2 commentsread comments
1 2 3 4 5
x 4
add to favorites
×
Save as Personal and add changes to this tab that will be seen only by you. Learn more ›
×
You can save this tab as Personal to edit and correct it or add notes. All changes will be seen only by you. Learn more »
launch autoscroll
font size
0
reset
how to read this tab
guitar tuner
backing track
0:00
0:00
edit
Autoscroll
slow
fast
+/-
esc
set tempo
stop
-------------------------------------------------------------------------------
                             SICK BUBBLEGUM - ROB ZOMBIE
-------------------------------------------------------------------------------
Tabbed by:johnlong666
Email:johnlong666666@yahoo.com

Tuning:DADGBE

e|verse--------------------------------------------------------------|
B|-------------------------------------------------------------------|
G|-------------------------------------------------------------------|
D|-------------------------------------------------------------------|
A|---------------------555555558--555555558--555555555555-8878-------|
D|-5-------effect------555555558--555555558--555555555555-8878-------|
   b
e|-chorus----------------------------------------------------------|
B|-----------------------------------------------------------------|
G|-----------------------------------------------------------------|
D|-----------------------------------------------------------------|
A|-55-55-55-8878-55-55-55-8878-55-55-55-8878-55-55-55-8878---------|
D|-55 55 55 8878 55 55 55 8878 55 55 55 8878 55 55 55 8878---------|
   .. .. ..      .. .. ..      .. .. ..      .. .. ..
e|interlude--------------------------------------------------------|
B|-----------------------------------------------------------------|
G|---66-44-33-44-33-00-66-44-33-66-44-33-44-33-00-66-44-33---------|
D|---66-44-33-44-33-00-66-44-33-66-44-33-44-33-00-66-44-33---------|
A|-----------------------------------------------------------------|
D|-----------------------------------------------------------------|

e|--------------------------------------------------------------------|
B|--8\------8\-----8\-----10--10-10------8\----8\---8\----6--6-6------|
G|--------------------------------------------------------------------|
D|--------------------------------------------------------------------|
A|--------------------------------------------------------------------|
D|--------------------------------------------------------------------|

************************************

| /   slide up
| \   slide down
| h   hammer-on
| p   pull-off
| ~   vibrato
| +   harmonic
| x   Mute note
| b   Bend
| pb  Pre-bend
| br  Bend release
| pbr Pre-bend release
| brb Bend release bend

************************************

            
            
Suggest correction
Creating personal tab
Creating personal tab
You can edit any tab online and save it as your Personal.

You can edit, replace or remove any tab part or add personal notes – all changes will be seen only by you.

Personal tabs can be accessed anytime from any device, even offline.
Learn more »
comments
print report bad tab
2 comments total.
+1 reply
jdsmito 10 Sep 01, 2013 01:39 PM

I saw a video (http://www.youtube.com/watch?v=zCwOZ2Y6y44) of a dude playing this in standard tuning and thought I'd post what I think he's doing just as an alternative to the above. I'm a beginner, so if I'm wrong, correct me as opposed to being eTuff.

Instead of "G" on 5th fret in drop D, the guy is doing a "G" power chord on the 3rd fret in std. tuning. --also sounds and looks like a slide.

INTRO
--- ..or you can play it like in the video.
--- he's just hitting only the low E note, following
--- the pattern in the next section

-3-ks

ks= two pickups, kill the volume to your neck (or vice versa), set your pickup selector to your bridge and flick it between middle & bridge)
__________________________________
VERSE (x2)
------------------ | ----------------------------
------------------ | ----------------------------
------------------ X2 | ---------------------------- X1
-5-5-5-5-5-5/8/10- | -5-5-5-5-5-5/8/10--5-5-8-8-8
-5-5-5-5-5-5/8/10- | -5-5-5-5-5-5/8/10--5-5-8-8-8
-3-3-3-3-3-3/6/8-- | -3-3-3-3-3-3/6/8---3-3-6-6-6

CHORUS 1 (x2)
--- | ---
--- | ---
--- X28 | ---
-5- | -8-8-8
-5- | -8-8-8
-3- | -6-6-6

CHORUS 2 (x4)
--------------------------
-----5------5-----5-------
-----5------5-----5-------
-5-5----5-5----5-5---8-8-8
-5-5----5-5----5-5---8-8-8
-3-3----3-3----3-3---6-6-6

..Hopefully everything lined up ok. I know I tabbed it in an unorthodox way.

0 reply
jdsmito 10 Sep 01, 2013 02:20 PM

in the intro I meant E string-- 6th string.

guest
You may want to rate the tab now too:
select rating
Wanna post a correction for this tab? Suggest correction