Oops, an error
Loading. Please wait.

Song Of Hope bass

4,601 views 1 this week
1 commentread comment
1 2 3 4 5
1 last vote to show rating
add to favorites
×
Save as Personal and add changes to this tab that will be seen only by you. Learn more ›
×
You can save this tab as Personal to edit and correct it or add notes. All changes will be seen only by you. Learn more »
launch autoscroll
font size
0
reset
guitar tuner
edit
Autoscroll
slow
fast
+/-
esc
set tempo
stop
Author
Tabbed By:  Terry Fish 
e-mail: fishesmt@msn.com

Tuning:  standard

Intro/Chorus

G|-------------------------------------------------------------------------|
D|-9-9-9-9-9-9-9-9-9--11-9--11-9-11-9--------------9------------14-14-14-14|
A|-------------------9-----9----------11-9-11-11-11--11-9-7-7-7------------|
E|-------------------------------------------------------------------------|

Verse

G|--------------------------------------------------------------|
D|---------------------------------9-9-11-9-9--9-11-9-11-9------|
A|---11-11-9-9-11-11--9-11-9-11-9-------------------------------| 3x
E|--------------------------------------------------------------|
    then
G|-------------------------------------------------------------------|
D|-------------------------------------------------------------------|
A|---11-11-9-9-11-11-----9-11-9-11-9-7-7-7-7-7-7-7-7-7-7-7-7-7-7-7-7-|
E|-------------------------------------------------------------------|

Bridge

G|----------------------------------|
D|----------------------------------|
A|--7-7-7-7-7-7-7-7-9-9-9-9-9-9-9-9-|
E|----------------------------------|

G|------------------------------------------------------------|
D|------------------------------------------------------------|
A|--11-11-11-11-11-11-11-11-13-13-13-13-13-13-13-13 (4x)----14|
E|------------------------------------------------------------|



I think this is pretty close to as written except the bridge is an easier 
version.  Let me know if it needs corecting.

            
            
Suggest correction
Creating personal tab
Creating personal tab
You can edit any tab online and save it as your Personal.

You can edit, replace or remove any tab part or add personal notes – all changes will be seen only by you.

Personal tabs can be accessed anytime from any device, even offline.
Learn more »
Give kudos to tab author, rate the tab!
1 2 3 4 5
comments
print report bad tab
1 comment total.
0 reply
montyhobson 236 Mar 16, 2016 12:25 PM

This is great! For accurate chord chart of this tune you can copy and paste into PCO click here:
http://accuratechordcharts.blogspot.com/2016/03/robbieseayaccuratechordchartssongofhope.html

guest
You may want to rate the tab now too:
select rating
Wanna post a correction for this tab? Suggest correction