Oops, an error
Loading. Please wait.

Song Of Hope Come Down tab

16,268 views 1 this week
7 commentsread comments
1 2 3 4 5
x 6
add to favorites
×
Save as Personal and add changes to this tab that will be seen only by you. Learn more ›
×
You can save this tab as Personal to edit and correct it or add notes. All changes will be seen only by you. Learn more »
launch autoscroll
font size
0
reset
how to read this tab
guitar tuner
edit
Autoscroll
slow
fast
+/-
esc
set tempo
stop
Author
Song:Song of Hope (Heaven Come Down)
Artist:Robbie Seay Band
Album:Give Yourself Away
Copyright:2007 Sparrow Records
Standard Tuning
Intro:
e|-------------------------------------------11-------------------|
B|12-12--12-12--12-12------------------12-14----14-12----17-17-16-|
G|15-15b-15-15b-15-15b-15b-15-13-11-13-------------------16-16-16-|
D|----------------------------------------------------14----------|
A|----------------------------------------------------------------|
E|----------------------------------------------------------------|


Verse 1:  (0:22)
Mostly it sounds like they just play bass
and chords for the fist verse.

Chorus:  (00:52)
e|-------------------------------------------11-------------------|
B|12-12--12-12--12-12------------------12-14----14-12----17-17-16-|
G|15-15b-15-15b-15-15b-15b-15-13-11-13-------------------16-16-16-|
D|----------------------------------------------------14----------|
A|----------------------------------------------------------------|
E|----------------------------------------------------------------|x2

Post-chorus:  (1:09)
e|-------------------------------------------11-------------------|
B|12-12--12-12--12-12------------------12-14----14-12----17-17-16-|
G|15-15b-15-15b-15-15b-15b-15-13-11-13-------------------16-16-16-|
D|----------------------------------------------------14----------|
A|----------------------------------------------------------------|
E|----------------------------------------------------------------|

Verse 2: (1:19)
e|-----------------------------------------|
B|-----------------------------------------|   This verse is just
G|-----16--15-16-15-13--------16------16-13|   background stuff so
D|11-13-----------------11-13----11-13-----|   you have to listen closely.
A|-----------------------------------------|
E|-----------------------------------------|

Chorus x2:  (1:49)

Instrumental:  (2:25)
e|--------------------------|
B|--------------19----------|
G|20-13--18-15----16--15--16|
D|----------------------16--|
A|--------------------------|
E|--------------------------|   The instrumental and bridge
                                sound like piano but I tabbed
Bridge:  (2:31)                 it anyways.
e|--------------------------|
B|--------------19----------|
G|20-13--18-15----16--15--16|
D|----------------------16--|
A|--------------------------|
E|--------------------------| x3

Chorus:  (2:56)
For this chorus I didn't hear any tab being played.

Chorus x2:  (3:15)

Post-chorus x2:  (3:45)

Ending: (4:02)
e|--------------14--|
B|12-11--11-12------|
G|-----11-----11--11|
D|------------------|
A|------------------|
E|------------------| x19

This tab is really easy. I'm not sure about the 2nd vers but I think everything else is good.
Feel free to add your comment or correction and
please rate.
Updated: 3-11-09  3-13-09

            
            
Suggest correction
Creating personal tab
Creating personal tab
You can edit any tab online and save it as your Personal.

You can edit, replace or remove any tab part or add personal notes – all changes will be seen only by you.

Personal tabs can be accessed anytime from any device, even offline.
Learn more »
comments
print report bad tab
7 comments total. Showing first comments.
0 reply
softball1230 280 Sep 04, 2008 10:26 AM

sorry i made it so long, i should have made it shorter

0 reply
Magik19 30 Mar 05, 2009 12:13 PM

Hey softball good job with the tab. You did awesome with figuring out the leads. On the very beginning of the intro though, it's a little different from what you posted.

e|-----------------|
B|12-12--12-12--12-|
G|15-15b-15-15b-15-|
D|-----------------|
A|-----------------|
E|-----------------|

0 reply
harrykrewson 16 Mar 09, 2009 12:46 PM

This is how I play the intro

e|---------------------------------------11-------------------|
B|12-12--12-12--12-12--------------12-14----14-12----17-17-16-|
G|15-15b-15-15b-15-15b-15-13-11-13-------------------16-16-16-|
D|------------------------------------------------14----------|
A|------------------------------------------------------------|
E|------------------------------------------------------------|

guest
You may want to rate the tab now too:
select rating
Wanna post a correction for this tab? Suggest correction