Oops, an error
Loading. Please wait.

Random Acts Of Kindness bass

10 views 1 this week
no commentswrite comment
1 2 3 4 5
3 more votes to show rating
add to favorites
×
Save as Personal and add changes to this tab that will be seen only by you. Learn more ›
×
You can save this tab as Personal to edit and correct it or add notes. All changes will be seen only by you. Learn more »
launch autoscroll
font size
0
reset
guitar tuner
edit
Autoscroll
slow
fast
+/-
esc
set tempo
stop
Eobbie Williams - Random acts of kindness
from Intensive Care (2005)

Tabbed by Leo Chiurco

[Intro]
G|-----------------|-----------------|-----------------|-----------------|-----------------|
D|-----------------|-----------------|-----------------|-----------------|-----------------|
A|-----------3-3-3-|-5-5-5-5-5-3-3-3-|-5-5-5-5-5-3-3-3-|-5-5-5-5-5-3-3-3-|-5-5-5-5-5-3-3-3-|
E|-----------------|-----------------|-----------------|-----------------|-----------------|
   1 + 2 + 3 + 4 +   1 + 2 + 3 + 4 +   1 + 2 + 3 + 4 +   1 + 2 + 3 + 4 +   1 + 2 + 3 + 4 +

G|-----------------|-----------------|-----------------|-----------------|
D|-----------------|-----------------|-----------------|-----------------|
A|-5-5-5-5-5-3-3-3-|-5-5-5-5-5-3-3-3-|-5-5-5-5-5-3-3-3-|-5-5-5-5-5-3-3-3-|
E|-----------------|-----------------|-----------------|-----------------|
   1 + 2 + 3 + 4 +   1 + 2 + 3 + 4 +   1 + 2 + 3 + 4 +   1 + 2 + 3 + 4 +

[Verse 1] "For those about to die, we salute you ..."
G|-----------------|-----------------|-----------------|-----------------|
D|-----------------|-----------------|-----------------|-----------------| 
A|-5-5-5-5-5-3-3-3-|-5-5-5-5-5-3-3-3-|-5-5-5-5-5-3-3-3-|-5-5-5-5-5-3-3-3-|
E|-----------------|-----------------|-----------------|-----------------|
   1 + 2 + 3 + 4 +   1 + 2 + 3 + 4 +   1 + 2 + 3 + 4 +   1 + 2 + 3 + 4 +

G|-----------------|-----------------|-----------------|-----------------|
D|-----------------|-----------------|-----------------|-----------------|
A|-5-5-5-5-5-3-3-3-|-5-5-5-5-5-3-3-3-|-5-5-5-5-5-3-3-3-|-5-5-5-5-5-3-3-3/|
E|-----------------|-----------------|-----------------|-----------------|
   1 + 2 + 3 + 4 +   1 + 2 + 3 + 4 +   1 + 2 + 3 + 4 +   1 + 2 + 3 + 4 +

[Chorus 1] "And if it hurts to be so blind ..."
G|-----------------|-----------------|-----------------|-----------------|
D|-----------------|-----------------|-5-5-5-5-5-5-5-5-|-5-5-5-5-5/7-7-7\| 
A|-7-7-7-7-7-7-7-7-|-7-7-7-7-7-9---9-|-----------------|-----------------|
E|-----------------|-----------------|-----------------|-----------------|
   1 + 2 + 3 + 4 +   1 + 2 + 3 + 4 +   1 + 2 + 3 + 4 +   1 + 2 + 3 + 4 +

G|-----------------|-----------------|-----------------|-----------------|
D|-----------------|-----------------|-----------------|-----------------|
A|-5-5-5-5-5-3-3-3-|-5-5-5-5-5-3-3-3-|-5-5-5-5-5-3-3-3-|-5-5-5-5-5-3-3-3-|
E|-----------------|-----------------|-----------------|-----------------|
   1 + 2 + 3 + 4 +   1 + 2 + 3 + 4 +   1 + 2 + 3 + 4 +   1 + 2 + 3 + 4 +

[Verse 2] "They dicided ..."
G|-----------------|-----------------|-----------------|-----------------|
D|-----------------|-----------------|-----------------|-----------------|
A|-5-5-5-5-5-3-3-3-|-5-5-5-5-5-3-3-3-|-5-5-5-5-5-3-3-3-|-5-5-5-5-5-3-3-3-|
E|-----------------|-----------------|-----------------|-----------------|
   1 + 2 + 3 + 4 +   1 + 2 + 3 + 4 +   1 + 2 + 3 + 4 +   1 + 2 + 3 + 4 +

G|-----------------|-----------------|-----------------|-----------------|
D|-----------------|-----------------|-----------------|-----------------|
A|-5-5-5-5-5-3-3-3-|-5-5-5-5-5-3-3-3-|-5-5-5-5-5-3-3-3-|-5-5-5-5-5-3-3-3/|
E|-----------------|-----------------|-----------------|-----------------|
   1 + 2 + 3 + 4 +   1 + 2 + 3 + 4 +   1 + 2 + 3 + 4 +   1 + 2 + 3 + 4 +

[Chorus 2] "Born without a spine ..."
G|-----------------|-----------------|-----------------|-----------------|
D|-----------------|-----------------|-5-5-5-5-5-5-5-5-|-5-5-5-5-5/7-7-7\| 
A|-7-7-7-7-7-7-7-7-|-7-7-7-7-7-9---9-|-----------------|-----------------|
E|-----------------|-----------------|-----------------|-----------------|
   1 + 2 + 3 + 4 +   1 + 2 + 3 + 4 +   1 + 2 + 3 + 4 +   1 + 2 + 3 + 4 +

G|-----------------|-----------------|-----------------|-----------------|
D|-----------------|-----------------|-----------------|-----------------|
A|-5-5-5-5-5-3-3-3-|-5-5-5-5-5-3-3-3-|-5-5-5-5-5-3-3-3-|-5-5-5-5-5-3-3-3-|
E|-----------------|-----------------|-----------------|-----------------|
   1 + 2 + 3 + 4 +   1 + 2 + 3 + 4 +   1 + 2 + 3 + 4 +   1 + 2 + 3 + 4 +

[Verse 3] "For those ..."
G|-----------------|-----------------|-----------------|-----------------|
D|-----------------|-----------------|-----------------|-----------------|
A|-5-5-5-5-5-3-3-3-|-5-5-5-5-5-3-3-3-|-5-5-5-5-5-3-3-3-|-5-5-5-5-5-3-3-3-| (x2)
E|-----------------|-----------------|-----------------|-----------------|
   1 + 2 + 3 + 4 +   1 + 2 + 3 + 4 +   1 + 2 + 3 + 4 +   1 + 2 + 3 + 4 +

[Bridge] "All the words ..."
G|-----------------|-----------------|-----------------|-----------------|
D|-----------------|-----------------|-----------------|-----------------|
A|-2-2-2---2-2-2-2-|-2-2-2-2-2-2-2-2-|-----------------|-----------------|
E|-----------------|-----------------|-3-3-3-3-3-3-3---|-3-3-3-3-3-3-3-3-|
   1 + 2 + 3 + 4 +   1 + 2 + 3 + 4 +   1 + 2 + 3 + 4 +   1 + 2 + 3 + 4 +

G|-----------------|-----------------|-----------------|-----------------|
D|-----------------|-----------------|-----------------|-----------------|
A|-----------------|-----------------|-----------------|-----------------|
E|-0-0-0-0-0-0-0-0-|-0-0-0-0-0-0-0-0-|-5-5-5-5-5-5-5-5-|-5-5-5-5-5-5-6-6-|
   1 + 2 + 3 + 4 +   1 + 2 + 3 + 4 +   1 + 2 + 3 + 4 +   1 + 2 + 3 + 4 +

G|-----------------|-----------------|-----------------|-----------------|
D|-----------------|-----------------|-----------------|-----------------|
A|-----------------|-----------------|-----------------|-----------------|
E|-7-7-7-7-7-7-7-7-|-7-7-7-7-7-7-7-7-|-3-3-3-3-3-3-3-3-|-3-3-3-3-3-3-3-3-|
   1 + 2 + 3 + 4 +   1 + 2 + 3 + 4 +   1 + 2 + 3 + 4 +   1 + 2 + 3 + 4 +

G|-----------------|-----------------|-----------------|-----------------|
D|-----------------|-----------------|-----------------|-----------------|
A|-----------------|-----------------|-----------------|-----------3-3-3-|
E|-0-0-0-0-0-0-0-0-|-0-0-0-0-0-0-0-0-|-5-5-5-5-5-5-5-5-|-5-5-5-5-5-------|
   1 + 2 + 3 + 4 +   1 + 2 + 3 + 4 +   1 + 2 + 3 + 4 +   1 + 2 + 3 + 4 +

[Verse 4] "I am just a simple man ..."
G|-----------------|-----------------|-----------------|-----------------|
D|-----------------|-----------------|-----------------|-----------------|
A|-5-5-5-5-5-3-3-3-|-5-5-5-5-5-3-3-3-|-5-5-5-5-5-3-3-3-|-5-5-5-5-5-3-3-3-|
E|-----------------|-----------------|-----------------|-----------------|
   1 + 2 + 3 + 4 +   1 + 2 + 3 + 4 +   1 + 2 + 3 + 4 +   1 + 2 + 3 + 4 +

G|-----------------|-----------------|-----------------|-----------------|
D|-----------------|-----------------|-----------------|-----------------|
A|-5-5-5-5-5-3-3-3-|-5-5-5-5-5-3-3-3-|-5-5-5-5-5-3-3-3-|-5-5-5-5-5-3-3-3/|
E|-----------------|-----------------|-----------------|-----------------|
   1 + 2 + 3 + 4 +   1 + 2 + 3 + 4 +   1 + 2 + 3 + 4 +   1 + 2 + 3 + 4 +

[Chorus 3] "And with Crowley on my mind ..."
G|-----------------|-----------------|-----------------|-----------------|
D|-----------------|-----------------|-5-5-5-5-5-5-5-5-|-5-5-5-5-5/7-7-7\| 
A|-7-7-7-7-7-7-7-7-|-7-7-7-7-7-9---9-|-----------------|-----------------|
E|-----------------|-----------------|-----------------|-----------------|
   1 + 2 + 3 + 4 +   1 + 2 + 3 + 4 +   1 + 2 + 3 + 4 +   1 + 2 + 3 + 4 +

G|-----------------|-----------------|-----------------|-----------------|
D|-----------------|-----------------|-----------------|-----------------|
A|-5-5-5-5-5-3-3-3-|-5-5-5-5-5-3-3-3-|-5-5-5-5-5-3-3-3-|-5-5-5-5-5-3-3-3-|
E|-----------------|-----------------|-----------------|-----------------|
   1 + 2 + 3 + 4 +   1 + 2 + 3 + 4 +   1 + 2 + 3 + 4 +   1 + 2 + 3 + 4 +

[Outro] "For those about to die, we salute you ..."
G|-----------------|-----------------|-----------------|-----------------|
D|-----------------|-----------------|-----------------|-----------------|
A|-5-5-5-5-5-3-3-3-|-5-5-5-5-5-3-3-3-|-5-5-5-5-5-3-3-3-|-5-5-5-5-5-3-3-3-| (x2)
E|-----------------|-----------------|-----------------|-----------------|
   1 + 2 + 3 + 4 +   1 + 2 + 3 + 4 +   1 + 2 + 3 + 4 +   1 + 2 + 3 + 4 +

G|-----------------|
D|-----------------|
A|-5---------------|
E|-----------------|
   1 + 2 + 3 + 4 +  

***********************

| / Slide up
| \ Slide down 

***********************

            
            
Suggest correction
Creating personal tab
Creating personal tab
You can edit any tab online and save it as your Personal.

You can edit, replace or remove any tab part or add personal notes – all changes will be seen only by you.

Personal tabs can be accessed anytime from any device, even offline.
Learn more »
Give kudos to tab author, rate the tab!
1 2 3 4 5
comments
print report bad tab
guest
You may want to rate the tab now too:
select rating
Wanna post a correction for this tab? Suggest correction