Oops, an error
Loading. Please wait.

Phone Booth bass

version 1
version 1

Whole song

  • Work in progress... unfinished business...

Interactive

187 views 1 this week
1 commentread comment
1 2 3 4 5
3 more votes to show rating
add to favorites
×
Save as Personal and add changes to this tab that will be seen only by you. Learn more ›
×
You can save this tab as Personal to edit and correct it or add notes. All changes will be seen only by you. Learn more »
launch autoscroll
font size
0
reset
guitar tuner
backing track
0:00
0:00
edit
Autoscroll
slow
fast
+/-
esc
set tempo
stop
About this tab version
Work in progress... unfinished business... Was this info helpful? Yes No
Phone Booth  
Robert Cray   

Key of E  - Standard tuning - 121 bpm

[Intro]:                     
G|+-++++-------------|---------------||-
D|-------------------|---------------||-
A|-------------------|---------------||- play x2
E|-----0-3-4-5r--0-5-|-0-3-4-5r--0-5-||-
 

 [Verse 1]: 00:08 
G|---------------||------------------------------|---------------|-
D|---------------||------------------------------|---------------|-
A|---------------||------------5--5-7--7---------|---------------|- 
E|-0-3-4-5r--0-5-||-0-3-4--5-5-----------5r--0-5-|-0-3-4-5r--0-5-|-
I'm in a phone booth, baby 
Number scratched on the wall 
G|---------------|---------------|---------------|---------------||-
D|---------------|---------------|-7-5-----------|---------------||-
A|-0-3-4-5r--0-5-|-0-3-4-5r--0-5-|-----7¬--------|---------------||- 
E|---------------|---------------|-------5r--0-5-|-0-3-4-5r--0-5-||- 
I'm in a phone booth, baby 
Number scratched on the wall
G|---------------|-------------|-------------------||-- [Verse 2] --|-
D|-------3r--0-3-|-----3p------|-7r-5--------------||---------------|-
A|---3-5---------|-5r-----7rr--|------7/3h---------||---------------|- 
E|-5-------------|-------------|-----------5r--0-5-||-0-3-4-5r--0-5-|- 
I'm new in Chicago 
Got no one else to call


[Verse 2]: 00:31 
G|---------------||------------------------------|---------------|-
D|---------------||------------------------------|---------------|-
A|---------------||------------5--5-7--7---------|---------------|- 
E|-0-3-4-5r--0-5-||-0-3-4--5-5-----------5r--0-5-|-0-3-4-5r--0-5-|-
Been walkin' all day 
For old friends I can't find 
G|---------------|---------------|---------------|---------------||-
D|---------------|---------------|-7-5-----------|---------------||-
A|-0-3-4-5r--0-5-|-0-3-4-5r--0-5-|-----7¬--------|---------------||- 
E|---------------|---------------|-------5r--0-5-|-0-3-4-5r--0-5-||- 
Hearts so cold 
Had to buy me some wine 
                                                    
G|---------------|-------------|-------------------||-Instrumental -|-
D|-------3r--0-3-|-----3p------|-7r-5--------------||---------------|-
A|---3-5---------|-5r-----7rr--|------7/3h---------||---------------|- 
E|-5-------------|-------------|-----------5r--0-5-||-0-3-4-5r--0-5-|- 
Calling you, baby 
Took my very last dime


[Instrumental]: 00:56  play x2
G|---------------||------------------------------|---------------|-
D|---------------||------------------------------|---------------|-
A|---------------||------------5--5-7--7---------|---------------|- 
E|-0-3-4-5r--0-5-||-0-3-4--5-5-----------5r--0-5-|-0-3-4-5r--0-5-|-

G|---------------|---------------|---------------|---------------||-
D|---------------|---------------|-7-5-----------|---------------||-
A|-0-3-4-5r--0-5-|-0-3-4-5r--0-5-|-----7¬--------|---------------||- 
E|---------------|---------------|-------5r--0-5-|-0-3-4-5r--0-5-||- 

                                                      end of 2nd run
G|---------------|-------------|-------------------||-- [Verse 3] --|-
D|-------3r--0-3-|-----3p------|-7r-5--------------||---------------|-
A|---3-5---------|-5r-----7rr--|------7/3h---------||---------------|- 
E|-5-------------|-------------|-----------5r--0-5-||-0-3-4-5r--0-5-|- 


[Verse 3]: 01:43 
G|---------------||------------------------------|---------------|-
D|---------------||------------------------------|---------------|-
A|---------------||------------5--5-7--7---------|---------------|- 
E|-0-3-4-5r--0-5-||-0-3-4--5-5-----------5r--0-5-|-0-3-4-5r--0-5-|-
I'm in a phone booth, baby 
Number scratched up on the wall 

G|---------------|---------------|---------------|---------------||-
D|---------------|---------------|-7-5-----------|---------------||-
A|-0-3-4-5r--0-5-|-0-3-4-5r--0-5-|-----7¬--------|---------------||- 
E|---------------|---------------|-------5r--0-5-|-0-3-4-5r--0-5-||- 
I'm in a phone booth, baby 
Number scratched on the wall 
                                                     
G|---------------|-------------|-------------------||-- [Verse 4] --|-
D|-------3r--0-3-|-----3p------|-7r-5--------------||---------------|-
A|---3-5---------|-5r-----7rr--|------7/3h---------||---------------|- 
E|-5-------------|-------------|-----------5r--0-5-||-0-3-4-5r--0-5-|-
I'm new in Chicago 
Got no one else to call

[Verse 4]: 02:08 
G|---------------||------------------------------|---------------|-
D|---------------||------------------------------|---------------|-
A|---------------||------------5--5-7--7---------|---------------|- 
E|-0-3-4-5r--0-5-||-0-3-4--5-5-----------5r--0-5-|-0-3-4-5r--0-5-|-
Said call Big Rita 
Anytime, day or night 
G|---------------|---------------|---------------|---------------||-
D|---------------|---------------|-7-5-----------|---------------||-
A|-0-3-4-5r--0-5-|-0-3-4-5r--0-5-|-----7¬--------|---------------||- 
E|---------------|---------------|-------5r--0-5-|-0-3-4-5r--0-5-||- 
You know I'm broke and I'm cold, baby 
And I hope you'll treat me right 

                                                     
G|---------------|-------------|-------------------||--- [Solo 2] --|-
D|-------3r--0-3-|-----3p------|-7r-5--------------||---------------|-
A|---3-5---------|-5r-----7rr--|------7/3h---------||---------------|- 
E|-5-------------|-------------|-----------5r--0-5-||-0-3-4-5r--0-5-|-
I'm in a phone booth, baby 
With the cold wind right outside


[SOLO 2]: 02:32  Play x3
G|---------------||------------------------------|---------------|-
D|---------------||------------------------------|---------------|-
A|---------------||------------5--5-7--7---------|---------------|- 
E|-0-3-4-5r--0-5-||-0-3-4--5-5-----------5r--0-5-|-0-3-4-5r--0-5-|-

G|---------------|---------------|---------------|---------------||-
D|---------------|---------------|-7-5-----------|---------------||-
A|-0-3-4-5r--0-5-|-0-3-4-5r--0-5-|-----7¬--------|---------------||- 
E|---------------|---------------|-------5r--0-5-|-0-3-4-5r--0-5-||- 

                                                     [Outro]
G|---------------|-------------|-------------------||---------------|-
D|-------3r--0-3-|-----3p------|-7r-5--------------||---------------|-
A|---3-5---------|-5r-----7rr--|------7/3h---------||---------------|- 
E|-5-------------|-------------|-----------5r--0-5-||-0-3-4-5r--0-5-|-

[Outro]: 
G|---------------||------------------------------|---------------|-
D|---------------||------------------------------|---------------|-
A|---------------||------------5--5-7--7---------|---------------|- 
E|-0-3-4-5r--0-5-||-0-3-4--5-5-----------5r--0-5-|-0-3-4-5r--0-5-|-

G|---------------|---------------|---------------|---------------||-
D|---------------|---------------|-7-5-----------|---------------||-
A|-0-3-4-5r--0-5-|-0-3-4-5r--0-5-|-----7¬--------|---------------||- 
E|---------------|---------------|-------5r--0-5-|-0-3-4-5r--0-5-||- 

                                                    [repeat from here]
G|---------------|-------------|-------------------||---------------|-
D|-------3r--0-3-|-----3p------|-7r-5--------------||---------------|-
A|---3-5---------|-5r-----7rr--|------7/3h---------||---------------|- 
E|-5-------------|-------------|-----------5r--0-5-||-0-3-4-5r--0-5-|-

[repeat from here]
G|---------------||------------------------------|---------------|-
D|---------------||------------------------------|---------------|-
A|---------------||------------5--5-7--7---------|---------------|- 
E|-0-3-4-5r--0-5-||-0-3-4--5-5-----------5r--0-5-|-0-3-4-5r--0-5-|-

G|---------------|---------------|---------------|---------------||-
D|---------------|---------------|-7-5-----------|---------------||-
A|-0-3-4-5r--0-5-|-0-3-4-5r--0-5-|-----7¬--------|---------------||- 
E|---------------|---------------|-------5r--0-5-|-0-3-4-5r--0-5-||- 


                                                    
G|---------------|-------------|-------------------||--[Fade out] --|-
D|-------3r--0-3-|-----3p------|-7r-5--------------||---------------|-
A|---3-5---------|-5r-----7rr--|------7/3h---------||---------------|- 
E|-5-------------|-------------|-----------5r--0-5-||-0-3-4-5r--0-5-|-

[Fade out]
G|---------------||------------------------------|---------------|-
D|---------------||------------------------------|---------------|-
A|---------------||------------5--5-7--7---------|---------------|- 
E|-0-3-4-5r--0-5-||-0-3-4--5-5-----------5r--0-5-|-0-3-4-5r--0-5-|-

G|---------------|---------------|---------------|---------------||-
D|---------------|---------------|-7-5-----------|---------------||-
A|-0-3-4-5r--0-5-|-0-3-4-5r--0-5-|-----7¬--------|---------------||- 
E|---------------|---------------|-------5r--0-5-|-0-3-4-5r--0-5-||- 

                                                    [End]
G|---------------|-------------|-------------------||-
D|-------3r--0-3-|-----3p------|-7r-5--------------||-
A|---3-5---------|-5r-----7rr--|------7/3h---------||- 
E|-5-------------|-------------|-----------5r--0-5-||-

End: 03:30


            
            
Suggest correction
Creating personal tab
Creating personal tab
You can edit any tab online and save it as your Personal.

You can edit, replace or remove any tab part or add personal notes – all changes will be seen only by you.

Personal tabs can be accessed anytime from any device, even offline.
Learn more »
Give kudos to tab author, rate the tab!
1 2 3 4 5
comments
print report bad tab
1 comment total.
0 reply
Bruno Frenchy 4,808 May 05, 2017 11:18 AM, edited at 06:03 pm

play a chord here
G|---------------|---------------|---------------|---------------||-
D|---------------|---------------|-7-5-----------|---------------||-
A|-0-3-4-5r--0-5-|-0-3-4-5r--0-5-|-----7¬--------|---------------||-
E|---------------|---------------|-------5r--0-5-|-0-3-4-5r--0-5-||-

guest
You may want to rate the tab now too:
select rating
Wanna post a correction for this tab? Suggest correction