Oops, an error
Loading. Please wait.

Dakota intro tab

1,127 views 3 this week
1 commentread comment
1 2 3 4 5
3 more votes to show rating
add to favorites
×
Save as Personal and add changes to this tab that will be seen only by you. Learn more ›
×
You can save this tab as Personal to edit and correct it or add notes. All changes will be seen only by you. Learn more »
launch autoscroll
font size
0
reset
how to read this tab
guitar tuner
edit
Autoscroll
slow
fast
+/-
esc
set tempo
stop
-------------------------------------------------------------------------------
                             Dakota - Robert Francis
-------------------------------------------------------------------------------
Tabbed by: Me
Email: Robbinvdvegte@live.nl

This is what I got so far, i can't quite figure out the chorus.
I hope someone can help me out 

Tuning: Standard with Capo on 3

  Am                        F#/Am
e|--------0------------0----------1----------1------|
B|-1--------1--1---------1--1-------0--1-------0----|
G|---2-----------2------------2----------2----------|
D|-----2-----------2------------2----------2--------|
A|-0-----0-----0-----0------------------------------|
E|--------------------------2----------2------------|

   Em                         G
e|---------0------------0-------------3---------3---|
B|-0---------0--0---------0-----0-------0---------0-|
G|---0------------0---------------0-------0---------|
D|-----2------------2-----------------------0-------|
A|--------------------------------------------------|
E|-0-----0------0-----0------/3-----3---3-----3-----|

            
            
Suggest correction
Creating personal tab
Creating personal tab
You can edit any tab online and save it as your Personal.

You can edit, replace or remove any tab part or add personal notes – all changes will be seen only by you.

Personal tabs can be accessed anytime from any device, even offline.
Learn more »
Give kudos to tab author, rate the tab!
1 2 3 4 5
comments
print report bad tab
1 comment total.
0 reply
Jinbro 191 Aug 19, 2013 07:38 PM

I added a few chords for the chorus. Hope this helps!

Tuning: Standard with Capo on 3

Am F#/Am
e|--------0------------0----------1----------1------|
B|-1--------1--1---------1--1-------0--1-------0----|
G|---2-----------2------------2----------2----------|
D|-----2-----------2------------2----------2--------|
A|-0-----0-----0-----0------------------------------|
E|--------------------------2----------2------------|

Em G
e|---------0------------0-------------3---------3---|
B|-0---------0--0---------0-----0-------0---------0-|
G|---0------------0---------------0-------0---------|
D|-----2------------2-----------------------0-------|
A|--------------------------------------------------|
E|-0-----0------0-----0------/3-----3---3-----3-----|

Light shines off rivers, flowing through
Every part of me, wanting every part of you
Soft and simple veins make a stain and find a drain
If I was the one, maybe I could feel your pain C Am F

F C G C

And the water blows while the night is on fire

F C G C
I patiently wait like a bird on a wire

F
Your dreams are made of

C Am
Fear while sleep surrounds us

F C
Tunnels changing lanes, over sunrise,

Am
All your pain inside a schoolbus

Summer, fall, October ends,
Shadows out and in
The winter won't pretend,
Though I know I'll see you again
The wind blows you and me,
Kitchen teardrops and the leaves
Oh I don't believe
That every night I feel you breathe

And the tension boils like sailors close to home
Time is black but you soon will be alone

Fate does tempt itself like a
Game of a cat and mouse it soon will find us
And anything we need God knows
The devil could proceed in denying us

guest
You may want to rate the tab now too:
select rating
Wanna post a correction for this tab? Suggest correction