Oops, an error
Loading. Please wait.

Crossroads Blues bass

12,574 views 12 this week
3 commentsread comments
1 2 3 4 5
1 last vote to show rating
add to favorites
×
Save as Personal and add changes to this tab that will be seen only by you. Learn more ›
×
You can save this tab as Personal to edit and correct it or add notes. All changes will be seen only by you. Learn more »
launch autoscroll
font size
0
reset
guitar tuner
edit
Autoscroll
slow
fast
+/-
esc
set tempo
stop
Author
Difficulty
There arnet any bass tabs for this so i decided to add my own, it may be hard to see but 
is because my pc is dumb
|------------|
|----5-3-----|  x4
|----------5-|
|-3----------|

|----5-3-----|
|----------5-|  x2
|-3----------|
|------------|

|------------|
|----5-3-----|  x2
|----------5-|
|-3----------|

|----7-5-----|
|----------5-|   x1
|-5----------|
|------------|

|------------|
|----5-3-----|   x1
|----------5-|
|-3----------|

|----------------|
|----5-3---------|  x1
|---------5-55555|
|-3--------------|
            And Repeat

            
            
Suggest correction
Creating personal tab
Creating personal tab
You can edit any tab online and save it as your Personal.

You can edit, replace or remove any tab part or add personal notes – all changes will be seen only by you.

Personal tabs can be accessed anytime from any device, even offline.
Learn more »
Give kudos to tab author, rate the tab!
1 2 3 4 5
comments
print report bad tab
3 comments total.
0 reply
acoustielectric 71 Feb 07, 2009 06:24 PM

Robert johnson didn't have a bassist...

0 reply
vereschagin21 51 Feb 20, 2009 06:28 AM

i know its just to play along wif it

0 reply
Maxelaxel 110 Aug 07, 2010 04:56 AM

how long do you hold the note at the 55,555 fret? :) haha

guest
You may want to rate the tab now too:
select rating
Wanna post a correction for this tab? Suggest correction