Oops, an error
Loading. Please wait.

Never Think tab

version 2
version 2

Whole song

20,230 views 12 this week
1 commentread comment
1 2 3 4 5
x 4
add to favorites
×
Save as Personal and add changes to this tab that will be seen only by you. Learn more ›
×
You can save this tab as Personal to edit and correct it or add notes. All changes will be seen only by you. Learn more »
launch autoscroll
font size
0
reset
how to read this tab
guitar tuner
edit
Autoscroll
slow
fast
+/-
esc
set tempo
stop
'Never Think' - Robert Pattinson
(Twilight's Original Soundtrack 2009)
Capo on 2nd Fret - Standard Tuning

This tab may look difficult, but it’s actually not that complicated at all.
 Just follow along with the original song as you play and always remember to
 play whichever way makes you feel comfortable. =)

Hammer on - /
Pull off - \

(Intentionally, Rob strums ‘Never Think’ sort of messy. Just a thought to
 keep in mind as your playing.)

Intro
e|---------------------------------------------------------|
B|--------------1--------1---------------1-----------------|
G|-------0-------------------------0-----------0-----0-----|
D|--0/2------2------0/2------------0/2------2-----2--------|
A|--------------------------3------------------------------|
E|-----------------------------0------------------------1--|


e|---------------------------------------------------0-----|
B|------------------------1--1-----------------------1-----|
G|-----------------0------0--0-----------------------0-----|
D|--0--0-0-0--0/2-----2------2-----0-------0--2---2--2-----|
A|------------------------------------0/3------------------|
E|------------------------------1-----------------------1--|


e|--------------------------------x-x-x----x-x-x----3-3-3--|
B|--------------------------------0-0-0----1-1-1----1-1-1--|
G|------------0--0-------0--------0-0-0----0-0-0----0-0-0--|
D|--0----0/2--------0/2-------0---0-0-0----0-0-0----0-0-0--|
A|----3----------------------------------------------------|
E|-------------------------1-------------------------------|
                                (Listen to the strum pattern)

e|--3--3----3-3--3---3--3----3-3--3-3--3----3-3---3---0-0--|
B|--1--1----1-1--1---1--1----1-1--0-0--0/1--1-1---3---1-1--|
G|--0--0/2--2-2--0---0--0/2--2-2--2-2--2----2-2---2---0-0--|
D|--3--3----3-3--2---3--3----3-3--3-3--3----3-3---x---2-2--|
A|----------------------------------------------------3-3--|
E|---------------------------------------------------------|
         (Once again, listen to the strum pattern...)


e|-----0-----0------------------------------------------------|
B|-----------1--------------------------1----------------1-1--|
G|-----------------------0-----0--0--0--------0---0-0/2--2-0--|
D|------------------0/2--------2------------------------------|
A|--3-----3-----------------2--------------0------------------|
E|------------------------------------------------------------|


e|-------------------------------------------------------------------|
B|-----1\0-----------------1\0--0--0----------------------1----------|
G|--0----------0--0--0/2--------0--0----------------0--0--0----0--0--|
D|-------------------------------------0---------0--2--2-------0--0--|
A|-------------------------------------0/2\0-----0-------------------|
E|----------1---------------------------------3--------------3-------|


e|----0----------------0---------0--------------0--|
B|----1----------------1---------1--------------1--|
G|----0----------------0---------0--------------0--|
D|----2----------------0---------2--------------0--|
A|--3-3------------(2)-2-----(3)-3----------(2)-2--|
E|-------------------------------------------------|
    Should never think...     What’s in your heart...


e|--0------------------------3-----------0---3--|
B|--1-------------------1\0--0-----------1---1--|
G|--0------------0--0/2------0-----------0---0--|
D|--2------------------------2-----------2---2--|
A|--0------------------------0-----------3---3--|
E|--1----------1-------------3-----------0---0--|
   What’s in our home...           So I wont...


e|----------3--------------------3--|
B|----------1--------------------1--|
G|----------0--------------------0--|
D|--0-0---0/2--------------------2--|
A|--0/2---2-2----------------0/2\0--|
E|----------0--------------------0--|
         And you learn to hate me...

e|--3--------------------------3-------------3--|
B|--1--------------------------1-------------0--|
G|--0--------------------------0-------------0--|
D|--2--------------------------2-------------0--|
A|--0--------------------------3-------------2--|
E|--0--------------------------0-------------0--|
   But still call me baby...              Oh love...

e|-----0------------------------0--|
B|-----1------------------------1--|
G|-----0------------------------0--|
D|-----2------------------------0--|
A|-----3------------------------3--|
E|-----0------------------------0--|
     So call me by my name...

e|-----3---------------------3-----------------3--|
B|-----1---------------------1-----------------1--|
G|-----0---------------------0-----------------0--|
D|-----2---------------------0-----------------2--|
A|-----3---------------------2-----------------0--|
E|-----0---------------------0-----------------0--|
     And, save your soul...     Save your soul...

e|-----------------------------------------------3--3--3------|
B|-----1----------------------1\0---0---0--------1--1--1------|
G|-----0-----------0/2--0/2---------0------0/2---0--0--0------|
D|------------------------------------------------------------|
A|------------------------------------------------------------|
E|------------1--------------------------------------------3--|
   Before your too far gone...       Before nothing can be done...


e|-----3---------------------3------------------------------3--|
B|-----1---------------------1------------------------------1--|
G|-----0---------------------0------------------------------0--|
D|-----2---------------------0------------------------------2--|
A|-----3---------------------2------------------------------0--|
E|-----0---------------------0------------------------------0--|
   And I’ll try to decide when,    she’ll lye in the end...


e|--------------------------3--------------------------------|
B|--------------------------1--------------------------------|
G|--------------------------0--------------------------------|
D|--------------------------2--------------------------------|
A|--------------------------3--------------------------------|
E|--------------------------0--------------------------------|
 I ain’t got no fight in me in this whole damn world...


e|-------------------0---0---0-------------------------------|
B|-------------------1---1---1-------------------------------|
G|-------------------0--/2---0-------------------------------|
D|---------------------------2-------------------------------|
A|-----------------------------------------------------------|
E|-------------1---------------------------------------------|
 Tell you hold off...        You chose to hold on...


e|--3------------------------------------3-------------------|
B|--1------------------------------------1-------------------|
G|--0------------------------------------0-------------------|
D|--2------------------------------------0-------------------|
A|--3------------------------------------2-------------------|
E|--0------------------------------------0-------------------|
       It’s the one thing that I’ve known.


e|--3-------------------------------------3------------------|
B|--1-------------------------------------1------------------|
G|--0-------------------------------------0------------------|
D|--2-------------------------------------0------------------|
A|--3-------------------------------------2------------------|
E|--0-------------------------------------0------------------|
       Once I put my coat on...

e|---------3-------------------------------------------------|
B|---------1-------------------------------------------------|
G|---------0------------------------------------------0/2----|
D|---------2-------------------------------------------------|
A|---------0-------------------------------------------------|
E|---------0--------------------------------------1----------|
        I’m coming out of this all wrong...


e|-------------------------------------3---------------------|
B|-------------------------------------0---------------------|
G|-------------------------------------0---------------------|
D|-------------------------------------0---------------------|
A|-------------------------------------2---------------------|
E|-------------------------------------0---------------------|
        She’s standing outside holding me...
e|---------3-----------------3----------------------3---------|
B|---------1-----------------1--------------------1\0---------|
G|---------0-----------------0--------------2-0/2---0---------|
D|---------2-----------------0----------------------2---------|
A|---------3-----------------2----------------------0---------|
E|---------0-----------------0----------1-----------0---------|
     Saying oh please, I’m in love...    I’m in love...


e|-----3--------------3-----------------3--------------------|
B|-----1--------------1-----------------1--------------------|
G|-----0--------------0-----------------0--------------------|
D|-----2--------------0-----------------2--------------------|
A|-----3--------------2-----------------0--------------------|
E|-----0--------------0-----------------0--------------------|
     Girl,      Save your soul...     Save your soul...


e|------------------0---------------------------3------------|
B|------------------0-------------------1\0-----0------------|
G|------------------0-------------0-0/2---------0------------|
D|------------------0---------------------------0------------|
A|------------------2---------------------------2------------|
E|---------------1------------------------------0------------|
      Before you’re too far gone...


e|------------------------3--------------------3-------------|
B|------------------------1--------------------1-------------|
G|------------------------0--------------------0-------------|
D|------------------------2--------------------0-------------|
A|------------------------2--------------------2-------------|
E|------------------------0--------------------0-------------|
      And before nothing...    Can be done...


e|----0-----------------3------------3-----------------3-----|
B|----1-----------------1------------1-----------------0-----|
G|----0-----------------0------------0-----------------0-----|
D|----2-----------------0------------2-----------------0-----|
A|----3-----------------2------------3-----------------2-----|
E|----0-----------------0------------0-----------------0-----|
   ‘Cause without me,   you got it all...    So hold on...


e|-----------------------------------3--------3--------------|
B|-----------------------------------0--------1--------------|
G|-------------------------------0-0/2--------0--------------|
D|-----------------------------------0--------2--------------|
A|-----------------------------------0--------3--------------|
E|--------------------1--------------0--------0--------------|
       Without me you got it all,  so hold on...


e|--3-----------------------------------------------------3--|
B|--1-----------------------------------------------------0--|
G|--0-----------------------------------------------0/2---0--|
D|--0-----------------------------------------------------0--|
A|--2-----------------------------------------------------2--|
E|--0-------------------------------------------1---------0--|
        Without me you got it all...


e|---------------------------3------------------3------------|
B|---------------------------1-----------------/1------------|
G|---------------------------0------------------0------------|
D|---------------------------2------------------0------------|
A|---------------------------3------------------2------------|
E|---------------------------0------------------0------------|
      Without me you got it all,    so hold on...


e|--------------------------------3--------------3-----------|
B|--------------------------------1--------------0-----------|
G|--------------------------------0--------------0-----------|
D|--------------------------------2--------------0-----------|
A|--------------------------------3--------------2-----------|
E|--------------------------------0--------------0-----------|
      Without me you got it all,    so hold on...


e|-------------3------------------------------------------0--|
B|-------------1------------------------------------------1--|
G|-------------0------------------------------------------0--|
D|-------------2------------------------------------------2--|
A|-------------3------------------------------------------3--|
E|-------------0------------------------------------------0--|
     Without me you got it all,    so hold on...

            
            
Suggest correction
Creating personal tab
Creating personal tab
You can edit any tab online and save it as your Personal.

You can edit, replace or remove any tab part or add personal notes – all changes will be seen only by you.

Personal tabs can be accessed anytime from any device, even offline.
Learn more »
comments
print report bad tab
1 comment total.
0 reply
al3x_90 10 Oct 31, 2009 05:15 AM

Intro
e|---------------------------------------------------------|
B|--------------1--------1---------------1-----0-----0-----|
G|-------0-------------------------0-----------------------|
D|--0/2------2------0/2------------0/2------2-----2--------|
A|--------------------------3------------------------------|
E|-----------------------------0------------------------1--|

guest
You may want to rate the tab now too:
select rating
Wanna post a correction for this tab? Suggest correction