Oops, an error
Loading. Please wait.

I Need More Love bass

version 2
version 2

Whole song

3,710 views 3 this week
no commentswrite comment
1 2 3 4 5
x 3
add to favorites
×
Save as Personal and add changes to this tab that will be seen only by you. Learn more ›
×
You can save this tab as Personal to edit and correct it or add notes. All changes will be seen only by you. Learn more »
launch autoscroll
font size
0
reset
guitar tuner
edit
Autoscroll
slow
fast
+/-
esc
set tempo
stop
Author
Difficulty
okay so this is my first bass tab. I am pretty sure this is all correct.
this is slapped but if you cant slap yet just play it normally.

Contact for questions/corrections    bbuccaneerfan87@comcast.net
/=slide
h=hammer on

riff 1
G-------9--------7--------9--------|
D-----------7h9-----9/11-------11--|
A--5/7-----------------------------|
E----------------------------------|

riff 2
G-------9---------9/11--9--7------|
D-----------7/9---------------9---|
A--5/7----------------------------|
E---------------------------------|

riff 3
G-------9------6------7------8----|
D---------------------------------|
A--5/7------4------5------6-------|
E---------------------------------|


to get the order and rhythm watch this vid of the song
http://www.youtube.com/watch?v=f4zpzEIdoPc

            
            
Suggest correction
Creating personal tab
Creating personal tab
You can edit any tab online and save it as your Personal.

You can edit, replace or remove any tab part or add personal notes – all changes will be seen only by you.

Personal tabs can be accessed anytime from any device, even offline.
Learn more »
Give kudos to tab author, rate the tab!
1 2 3 4 5
comments
print report bad tab
guest
You may want to rate the tab now too:
select rating
Wanna post a correction for this tab? Suggest correction