Oops, an error
Loading. Please wait.

Yo Te Amo tab

100 views 1 this week
no commentswrite comment
1 2 3 4 5
3 more votes to show rating
add to favorites
×
Save as Personal and add changes to this tab that will be seen only by you. Learn more ›
×
You can save this tab as Personal to edit and correct it or add notes. All changes will be seen only by you. Learn more »
launch autoscroll
font size
0
reset
how to read this tab
guitar tuner
edit
Autoscroll
slow
fast
+/-
esc
set tempo
stop
Bien esto es una gran cancionpor que aunque la 
canta roberto carlos es de los maestros the beatles
espeo que les guste 

Intro
E------------------------------------------------
B------------------------------------------------
G------------------------------------------------
D------2--1--------------------------------------
A----2-------4-----------------------------------
E------------------------------------------------
esto se repite 3 veces y empieza la cancion

F#m              C#m F#m      C#m
Fue tanto lo que amé y no sabía
F#m               C#m
que poco a poco yo,
A         B7           E
yo te perdía, yo te amo.


F#m            C#m  F#m       C#m
Y fue mi loco amor, inaccesible
F#m             C#m
callar mi corazón
A         B7           E
es imposible, yo te amo.


C#m         G#m C#m      G#m
Te amé sin más y enloquecí
C#m        G#m       B7 
no sé porque te perdí,

se repite el intro

F#m             C#m  F#m       C#m
el tiempo ya pasó y no consigo
F#m             C#m
callar mi corazón
A           B7          E
y a veces digo que te amo.


PUENTE 

     F#m        C#m       F#m            C#m       A       B7     E
E -------------------------------------------------------------------------|
B -------------------------------------------------------------------------|
G ---------9-7-10---------9-7--------9-7-10--10-7--------------------------|
D --5--7-8---------5-7-8-------5-7-8--------------8-7-------7--------------|
A ----------------------------------------------------5-3-5---5-3----------|
E ----------------------------------------------------------------5--3--1--|

Cambio de tono

Gm             Dm  Gm       Dm
el tiempo ya pasó y no consigo
Gm             Dm
callar mi corazón
Bb           C7         F
y a veces digo que te amo.

y se repite el intro 3 veces y eso es todo


bueno espero que les sirva por que esta es una gran cancion y 
si a alguien le gusta los beatles como yo escribanme a mi 
correo para tocar un dia yo soy del d.f sal pues un saludo a 
toda la banda y que viva el rock en español
Insaghi19@

            
            
Suggest correction
Creating personal tab
Creating personal tab
You can edit any tab online and save it as your Personal.

You can edit, replace or remove any tab part or add personal notes – all changes will be seen only by you.

Personal tabs can be accessed anytime from any device, even offline.
Learn more »
Give kudos to tab author, rate the tab!
1 2 3 4 5
comments
print report bad tab
guest
Wanna post a correction for this tab? Suggest correction