Oops, an error
Loading. Please wait.

Escondeme tab

version 1
version 1

Whole song

49 views 1 this week
no commentswrite comment
1 2 3 4 5
3 more votes to show rating
add to favorites
×
Save as Personal and add changes to this tab that will be seen only by you. Learn more ›
×
You can save this tab as Personal to edit and correct it or add notes. All changes will be seen only by you. Learn more »
launch autoscroll
font size
0
reset
how to read this tab
guitar tuner
edit
Autoscroll
slow
fast
+/-
esc
set tempo
stop
ay les va el requinto de esta cancion por cierto es la k mas
me gusta

E-8-10-10/12-10-----------------------------------------------
B----------------7-8--8-10-10/12-12-10-10/8-------------------
G--------------------------------------------7h9-7--9-11-12-7-
D-------------------------------------------------------------
A-------------------------------------------------------------
E-------------------------------------------------------------

E---------------------------------10-------------------------
B---------------------------8-10------------------------------
G----12-12/11--11-11-11---------------------------------------
D-------------------------------------------------------------
A-------------------------------------------------------------
E------------12-------------8---------------------------------


esa es mi forma de interpretar espero  les guste
 un saludo para mi hermano alexis

les debo un requinto de en medio y el solo
pero luego se los pongo

es k ahoy no tengo tiempo que Dios les bendiga

saludos

            
            
Suggest correction
Creating personal tab
Creating personal tab
You can edit any tab online and save it as your Personal.

You can edit, replace or remove any tab part or add personal notes – all changes will be seen only by you.

Personal tabs can be accessed anytime from any device, even offline.
Learn more »
Give kudos to tab author, rate the tab!
1 2 3 4 5
comments
print report bad tab
guest
Wanna post a correction for this tab? Suggest correction