Oops, an error
Loading. Please wait.

Paraiso Prometido tab

151 views 3 this week
no commentswrite comment
1 2 3 4 5
3 more votes to show rating
add to favorites
×
Save as Personal and add changes to this tab that will be seen only by you. Learn more ›
×
You can save this tab as Personal to edit and correct it or add notes. All changes will be seen only by you. Learn more »
launch autoscroll
font size
0
reset
how to read this tab
guitar tuner
edit
Autoscroll
slow
fast
+/-
esc
set tempo
stop
INTRO: Dm - A7 - Dm


     TRINO...
E ---13-----------13-15-13-13--12-----
B -------------15---------------------
G ------------------------------------
D ------------------------------------
A ------------------------------------
E ------------------------------------


E ----------------------------------------------------------------------
B -----------13------------------13-------------------------------------
G --12-14-14----14-14---12-14-14----14----12-14--14-14-14-12-10-----10--
D ---------------------------------------------------------------12-----
A ----------------------------------------------------------------------
E ----------------------------------------------------------------------


E ------------------------------------
B --------11-10---8---6---------------
G --10-12-------------7---------------
D ------------------------------------
A ------------------------------------
E ------------------------------------


Dm                              A
  Es larga la carretera que conduce a ningun lado
                             Dm
  pasaporte prestado y pocas ganas de hablar.

Dm                              A
  Es duro subir las cuestas y bajar por las pendientes
                                          Dm
  cruzar las turbias corrientes que nadie quiere cruzar.


Coro:
     Dm               A7
Pero hay que llegar, hay que llegar
                                      Dm
hay que llegar al fin del mundo al paraiso prometido.


BRASS Transcrito para guitarra
E ---------------------------------------------------------------------
B ---------------------------------------------------------------------
G ----5-7-5-7-------5-7-5-7-5-----------5-7-5-7-5----------------------
D --7-------------7-----------7-------7-----------7--------7-7-7-5-----
A -------------------------------------------------------8---------8---
E ---------------------------------------------------------------------


Dm                  A7
  Hay que llegar al horizonte
donde se pierden los sentidos
         Dm
comer la fruta del arbol escondido

Dm                   A7
  Y Hay que llegar al horizonte
donde se pierden los sentidos
         Dm
comer la fruta del arbol prohibido


Coro:
       Dm                A7
Porque hay que llegar, hay que llegar
                                      Dm
hay que llegar al fin del mundo al paraiso prometido.(BIS)


INTERLUDIO:
 Eb - Dm - Eb - Dm - Bb - A7


Coro:
           Dm                      A7
Hay que llegar    Hay que llegar, hay que llegar
                                      Dm
 hay que llegar al fin del mundo al paraiso prometido.(BIS)


Hay que llegar, hay que llegar
mas alla de las montañas
al paraiso prometido

Deja que tu paso siga
mas alla de las montanas...

            
            
Suggest correction
Creating personal tab
Creating personal tab
You can edit any tab online and save it as your Personal.

You can edit, replace or remove any tab part or add personal notes – all changes will be seen only by you.

Personal tabs can be accessed anytime from any device, even offline.
Learn more »
Give kudos to tab author, rate the tab!
1 2 3 4 5
comments
print report bad tab
guest
Wanna post a correction for this tab? Suggest correction