Oops, an error
Loading. Please wait.

Headlights tab

6,992 views 21 this week
2 commentsread comments
1 2 3 4 5
x 4
add to favorites
×
Save as Personal and add changes to this tab that will be seen only by you. Learn more ›
×
You can save this tab as Personal to edit and correct it or add notes. All changes will be seen only by you. Learn more »
launch autoscroll
font size
0
reset
how to read this tab
guitar tuner
edit
Autoscroll
slow
fast
+/-
esc
set tempo
stop
Author
Difficulty
Tuning: Standart

[Intro/Verse Riff]
e|---------------------------------------------------------------|
B|---------------------------------------------------------------|
G|--8------8------8------4------3------8------8------8------8----|
D|---------------------------------------------------------------|
A|---------------------------------------------------------------|
E|--0------0------7------4------2------7------7------7------7----|

[Chorus Riff]
e|---------------------------------------------------------------|
B|--------0--------------0--------------0--------------0---------|
G|---------------------------------------------------------------|
D|----6------6---6---4------4---4---4------4---4---4------4---4--|
A|--7---7------7---6---6------6---4---4------4---4---4------4----|
E|---------------------------------------------------------------|

e|---------------------------------------------------------------|
B|--------0--------------0--------------0--------------0---------|
G|---------------------------------------------------------------|
D|----6------6---6---6------6---6---4------4---4---4------4---4--|
A|--7---7------7---6---6------6---4---4------4---4---4------4----|
E|---------------------------------------------------------------|

[Chorus Chords]
    E              B/D#           F#
e|--0--0-0-0-0-0-0-----------------------------------------------|
B|--0--0-0-0-0-0-0-4--4-4-4-4-4-4-2--2-2-2-2-2-2-2--2-2-2-2-2-2--|
G|--1--1-1-1-1-1-1-4--4-4-4-4-4-4-2--2-2-2-2-2-2-2--2-2-2-2-2-2--|
D|--2--2-2-2-2-2-2-4--4-4-4-4-4-4-3--3-3-3-3-3-3-3--3-3-3-3-3-3--|
A|--2--2-2-2-2-2-2-6--6-6-6-6-6-6-4--4-4-4-4-4-4-4--4-4-4-4-4-4--|
E|--0--0-0-0-0-0-0-----------------------------------------------|

    E              G#m            F#
e|--0--0-0-0-0-0-0-4--4-4-4-4-4-4-2--2-2-2-2-2-2-2--2-2-2-2-2-2--|
B|--0--0-0-0-0-0-0-4--4-4-4-4-4-4-2--2-2-2-2-2-2-2--2-2-2-2-2-2--|
G|--1--1-1-1-1-1-1-4--4-4-4-4-4-4-3--3-3-3-3-3-3-3--3-3-3-3-3-3--|
D|--2--2-2-2-2-2-2-6--6-6-6-6-6-6-4--4-4-4-4-4-4-4--4-4-4-4-4-4--|
A|--2--2-2-2-2-2-2-6--6-6-6-6-6-6-4--4-4-4-4-4-4-4--4-4-4-4-4-4--|
E|--0--0-0-0-0-0-0-4--4-4-4-4-4-4-2--2-2-2-2-2-2-2--2-2-2-2-2-2--|

            
            
Suggest correction
Creating personal tab
Creating personal tab
You can edit any tab online and save it as your Personal.

You can edit, replace or remove any tab part or add personal notes – all changes will be seen only by you.

Personal tabs can be accessed anytime from any device, even offline.
Learn more »
comments
print report bad tab
2 comments total.
0 reply
TrisVampsDrums 617 Aug 13, 2015 10:39 PM

Amazing tab!! :D

0 reply
charliesells 230 Aug 17, 2015 08:24 PM

Lol you definitely stole this tab from Chordistry. The real credit goes to these guys. http://www.chordistry.com/songs/robin-schulz-headlights-guitar-lesson-tabs

guest
You may want to rate the tab now too:
select rating
Wanna post a correction for this tab? Suggest correction