Oops, an error
Loading. Please wait.

Sugar intro tab

version 5
version 5

Intro

Whole song

  • Other ways of playing this song I have found have ... Show more
  • Note for note song giving the reader the bridge of... Show more

Interactive

2,368 views 6 this week
3 commentsread comments
1 2 3 4 5
x 3
add to favorites
×
Save as Personal and add changes to this tab that will be seen only by you. Learn more ›
×
You can save this tab as Personal to edit and correct it or add notes. All changes will be seen only by you. Learn more »
launch autoscroll
font size
0
reset
how to read this tab
guitar tuner
edit
Autoscroll
slow
fast
+/-
esc
set tempo
stop
About this tab version
This is the correct version... note wise. Was this info helpful? Yes No
-------------------------------------------------------------------------------
                             Sugar - Robin Schultz
-------------------------------------------------------------------------------

Tuning: EADGBE                 Capo on 1th Fret

 
                           Playing Rithm  chords  


       T   T            T   T            T       T         T   T--- TAB OPTION INSTEAD OF D 
     D DU UDU         D DU UDU         D DU    D DU      D DUDUDU   HIT YOUR GUITAR FOR NICE RYTHM EFFECT          
     ↓↑↓↑↓↑↓↑         ↓↑↓↑↓↑↓↑         ↓↑↓↑    ↓↑↓↑      ↓↑↓↑↓↑↓↑   
   
    Am                Em               C       D         Am 
e|-----------------]----------------]-----------------]-----------------|
B|----1-1h3p1------]----------------]-----------------]-----------------|
G|-----2--------0--]----0-0-0h2p0---]-----------------]----2---2h4p2-0--|
D|-----------------]--2-----------2-]----2-------4----]-----------------|
A|--0---------0----]----------------]--3---3---5---5--]--0---0------0---|
E|-----------------]----------------]-----------------]-----------------|


| /   slide up
| \   slide down
| h   hammer-on
| p   pull-off
| ~   vibrato
| +   harmonic
| x   Mute note
| b   Bend
| pb  Pre-bend
| br  Bend release
| pbr Pre-bend release
| brb Bend release bend

************************************

            
            
Suggest correction
Creating personal tab
Creating personal tab
You can edit any tab online and save it as your Personal.

You can edit, replace or remove any tab part or add personal notes – all changes will be seen only by you.

Personal tabs can be accessed anytime from any device, even offline.
Learn more »
Give kudos to tab author, rate the tab!
1 2 3 4 5
comments
print report bad tab
3 comments total.
0 reply
ronanjmc 51 Dec 08, 2015 08:55 AM

notes are all wrong, and I think they do not fit well with the song.

e e e e e

0 reply
Gerrieklopping 82 Dec 09, 2015 05:06 PM

Notes are correct the location are not correct as in videoclip for that one go to version 6

0 reply
Gerrieklopping 82 Dec 17, 2015 01:54 AM

ofcours they are

guest
You may want to rate the tab now too:
select rating
Wanna post a correction for this tab? Suggest correction