Oops, an error
Loading. Please wait.

Sugar tab

version 5
version 5

Whole song

Interactive

Video

  • It includes a detail view of the left and the right hand.
571 views 3 this week
2 commentsread comments
1 2 3 4 5
1 last vote to show rating
add to favorites
×
Save as Personal and add changes to this tab that will be seen only by you. Learn more ›
×
You can save this tab as Personal to edit and correct it or add notes. All changes will be seen only by you. Learn more »
launch autoscroll
font size
0
reset
how to read this tab
guitar tuner
edit
Autoscroll
slow
fast
+/-
esc
set tempo
stop
-------------------------------------------------------------------------------
                             Sugar - Robin Schulz 
-------------------------------------------------------------------------------
Tabbed by: SenseiTango 
E-mail:

Tuning: Standard 
Capo on 1st fret 

e|--------------------------------------------------------------------------|
B|-----1---1h3p1------------------------------------------------------------|
G|------------------0----0---0h2p0------------------------2---2h4p2---0-----|
D|--------------------2----2--------2--0----2-----4-------------------------|
A|--0----0-------0-----------------------3----3/5---5--0----0-------0-------|
E|--------------------------------------------------------------------------|

Repeat forever :D


************************************

| /   slide up
| \   slide down
| h   hammer-on
| p   pull-off
| ~   vibrato
| +   harmonic
| x   Mute note
| b   Bend
| pb  Pre-bend
| br  Bend release
| pbr Pre-bend release
| brb Bend release bend

************************************

            
            
Suggest correction
Creating personal tab
Creating personal tab
You can edit any tab online and save it as your Personal.

You can edit, replace or remove any tab part or add personal notes – all changes will be seen only by you.

Personal tabs can be accessed anytime from any device, even offline.
Learn more »
Give kudos to tab author, rate the tab!
1 2 3 4 5
comments
print report bad tab
2 comments total.
0 reply
tigerpanda143 10 Feb 12, 2016 07:21 PM

This is the most accurate one, great fucking job, I love it

0 reply
Kaseke 398 Apr 22, 2016 08:16 AM

5 stars. Boom.

guest
You may want to rate the tab now too:
select rating
Wanna post a correction for this tab? Suggest correction