Oops, an error
Loading. Please wait.

Time Will Let You Know chords

version 2
version 2

Whole song

213 views 3 this week
no commentswrite comment
1 2 3 4 5
3 more votes to show rating
add to favorites
×
Save as Personal and add changes to this tab that will be seen only by you. Learn more ›
×
You can save this tab as Personal to edit and correct it or add notes. All changes will be seen only by you. Learn more »
launch autoscroll
font size
0
reset
transpose
0
reset
display chords
guitar tuner
edit
Autoscroll
slow
fast
+/-
esc
set tempo
stop
Strumming
There is no strumming pattern for this song yet. and get +5 IQ
-------------------------------------------------------------------------------
                   Time Will Let You Know-Robin Zander
-------------------------------------------------------------------------------
Tabbed by:Nick V.
E-mail:BlindTerry333@gmail.com

Tuning:EADGBE

   E  C#m  G#m  F#m  B   A
e|-4---4----4----2-------0--------------------------------------------------------|
B|-5---6----4----2---4---2--------------------------------------------------------|
G|-4---5----4----2---4---2--------------------------------------------------------|
D|-6---5----6----4---4---2--------------------------------------------------------|
A|-----4----6----4---2---0--------------------------------------------------------|
E|----------4----2----------------------------------------------------------------|

[Piano Intro]

Verse:

E                     C#m
Look at you and look at me
E                     C#m
Now, what are we supposed to be?
F#m                       G#m
We're so afraid of something new
              B        
You know it's true
E                      C#m
You turn around and then it's gone
E                      C#m
You can't be sure if it's the same old song
F#m                    G#m                  B
We're so afraid of everyone, afraid of the sun

C#m  G#m     F#m     B   C#m  
Please let this be love
  G#m  C#m         B    
A love that's so true

Chorus:

E                  B                  F#m
Oh, it's all up to me, it's all up to you
A            B
Time will let you know
E             B               F#m
Whatever will be whatever you do
A           B          E
Time will let you know

Verse:

E                     C#m
You see your folks and all their friends
E                      C#m
Ain't it funny how the story ends?
F#m                G#m                     B
You wonder why you're hanging on, when it's gone

C#m  G#m     F#m     B   C#m  
Please let this be love
  G#m  C#m         B    
A love that's so true


Chorus:

E                B                    F#m
Oh, it's all up to me, it's all up to you
A            B
Time will let you know
E             B                F#m
Whatever will be whatever you do
A           B          E
Time will let you know

E                B                    F#m
Oh, it's all up to me, it's all up to you
A            B
Time will let you know
E           B                  F#m
Whatever will be whatever you do
A           B          E
Time will let you know

Solo

e|----7b-----------9b--------------------7---7-9------------------------------|
B|-9------9-----9-------7----7-9-10--10------------7b-9----7/5/4--------------|
G|----------9-----------------------------------------------------------------|
D|----------------------------------------------------------------------------|
A|----------------------------------------------------------------------------|
E|----------------------------------------------------------------------------|

C#m  G#m     F#m     B   C#m  
Please let this be love
  G#m  C#m         B    
A love that's so true


Chorus:

E                B                    F#m
Oh, it's all up to me, it's all up to you
A            B
Time will let you know
E             B               F#m
Whatever will be whatever you do
A           B          E
Time will let you know


E                     C#m
Look at you and look at me
E                     C#m
Now, what are we supposed to be?
                      G#m       
We're so afraid of something new
            F#m        
You know it's true


Questions, comments, insults...BlindTerry333

            
            
Suggest correction
Creating personal tab
Creating personal tab
You can edit any tab online and save it as your Personal.

You can edit, replace or remove any tab part or add personal notes – all changes will be seen only by you.

Personal tabs can be accessed anytime from any device, even offline.
Learn more »
Give kudos to tab author, rate the tab!
1 2 3 4 5
comments
print report bad tab
guest
You may want to rate the tab now too:
select rating
Wanna post a correction for this tab? Suggest correction