Oops, an error
Loading. Please wait.

The Tears bass

455 views 1 this week
no commentswrite comment
1 2 3 4 5
3 more votes to show rating
add to favorites
×
Save as Personal and add changes to this tab that will be seen only by you. Learn more ›
×
You can save this tab as Personal to edit and correct it or add notes. All changes will be seen only by you. Learn more »
launch autoscroll
font size
0
reset
guitar tuner
edit
Autoscroll
slow
fast
+/-
esc
set tempo
stop
Difficulty
-------------------------------------------------------------------------------
			     The Tears – Robots In Disguise
-------------------------------------------------------------------------------
NOTES: Couldn’t believe that this song wasn’t on here. It’s one of my favourites from
This is my first tab for go easy on me  There are a few parts I’m not sure on but
sounds near enough 99% accurate. Sorry for any mistakes.

Tabbed By : RobotSkittles (Amie)
e-mail: xxamielouxx@googlemail.com

Tuning: Standard (GADE)

Intro x3
Bass starts at 0:15 after first few chords of piano. Although if you did want to start
a bass instead of a piano you could use this and repeat till 15 seconds in:

G|--------------------------------------------------------------------------------|
D|--------------------------------------------------------------------------------|
A|------000~--333~----------------------------------------------------------------|
E|--33~---------------------------------------------------------------------------|

Intro x3 0:15
G|------------------------------------------------------------------------------|
D|------------------------------------------------------------------------------|
A|------------0-00-000-3-33-333-3-33-333----------------------------------------|
E|---3-33-333-------------------------------------------------------------------|

Verse 1 0:35 'Fear of an enemy....'

G|------------------------------------------------------------------------------|
D|------------------------------------------------------------------------------|
A|------------0-00-000-3-33-333-3-33-333----------------------------------------|
E|---3-33-333-------------------------------------------------------------------|

Repeat through Verse 1

Instrumental before Verse 2 1:01 x2
G|------------------------------------------------------------------------------|
D|------------------------------------------------------------------------------|
A|------------0-00-000-3-33-333-3-33-333----------------------------------------|
E|---3-33-333-------------------------------------------------------------------|

Verse 2 1:14 'Crazed by my make believe....'

G|------------------------------------------------------------------------------|
D|------------------------------------------------------------------------------|
A|------------0-00-000-3-33-333-3-33-333----------------------------------------|
E|---3-33-333-------------------------------------------------------------------|

Chorus 'I’m your slave...'

G|---------------------------------------------------------------------------|
D|---0-00-000--------------------4440555-------------------------------------|
A|------------0-00-000-------------------------------------------------------|
E|---------------------3-33-333----------------------------------------------|

Repeat through Chorus

Solo 2:07

G|------------------------------------------------------------------------------|
D|------------------------------------------------------------------------------|
A|------------0-00-000-3-33-333-3-33-333----------------------------------------|
E|---3-33-333-------------------------------------------------------------------|

Repeat through solo

2:33 'Red light, Panic Terror...'

G|------------------------------------------------------------------------------|
D|------------------------------------------------------------------------------|
A|------------0-00-000-3-33-333-3-33-333----------------------------------------|
E|---3-33-333-------------------------------------------------------------------|

Chorus 2:40 'I’m your slave...'
G|---------------------------------------------------------------------------|
D|---0-00-000--------------------4440555-------------------------------------|
A|------------0-00-000-------------------------------------------------------|
E|---------------------3-33-333----------------------------------------------|

For the outro there is no bass (well I can’t hear it) but you could use this.
Repeat till end

G|--------------------------------------------------------------------------------|
D|--------------------------------------------------------------------------------|
A|------000~--333~----------------------------------------------------------------|
E|--33~---------------------------------------------------------------------------|

There you go. Really easy to play and if you have any comments or corrections I’d be 
to hear them.


| /  slide up
| \  slide down
| h  hammer-on
| p  pull-off
| ~  vibrato
| +  harmonic
| x  Mute note
===============================================================================

            
            
Suggest correction
Creating personal tab
Creating personal tab
You can edit any tab online and save it as your Personal.

You can edit, replace or remove any tab part or add personal notes – all changes will be seen only by you.

Personal tabs can be accessed anytime from any device, even offline.
Learn more »
Give kudos to tab author, rate the tab!
1 2 3 4 5
comments
print report bad tab
guest
Wanna post a correction for this tab? Suggest correction