Oops, an error
Loading. Please wait.

Turn It Up tab

3,273 views 1 this week
1 commentread comment
1 2 3 4 5
2 more votes to show rating
add to favorites
×
Save as Personal and add changes to this tab that will be seen only by you. Learn more ›
×
You can save this tab as Personal to edit and correct it or add notes. All changes will be seen only by you. Learn more »
launch autoscroll
font size
0
reset
how to read this tab
guitar tuner
edit
Autoscroll
slow
fast
+/-
esc
set tempo
stop
Author
Difficulty
turn it up - robots in disguise

CHORDS:
Em: 022000
G: 320033
Barred G (i shall call this BG): 355433
B: 224442

Em                   G                      BG
 I woke up weak today and needing your voice
                             B
Crawled into the speakers and turned up the volume
Em                 G                       BG  
 Felt so sick today but cured by your noise
                        B
My head in the speakers is drowning out volumes


it's the same all the way through then,
basically.


then there is the xylophone bit,
which is simple once again.


E|-------------------3-----3-2-----2---|
B|-2------2--2-----2-------------------|
G|--2--2-2-2--0-0-0-0-0-0-0-0-0-0-0-0--|       
D|---0--0------2-2-----0-0-----0-0-----| 
A|-------------------------------------|
E|-------------------------------------|



see, simple. :)




here's the order:




Em                   G                      BG
 I woke up weak today and needing your voice
                             B
Crawled into the speakers and turned up the volume
Em                 G                       BG  
 Felt so sick today but cured by your noise
                        B
My head in the speakers is drowning out volumes (repeat the chords throughout)

In "Ashes To Ashes" I'm falling falling
In "Ashes To Ashes" I'm losing losing
In "Curl" and "Grazes" I'm feeling feeling
In "Curl" and "Grazes" I'm losing losing

Turn it up turn it up turn it up turn it up
Turn it up turn it up turn it up turn it up
Turn me on

E|-------------------3-----3-2-----2---|
B|-2------2--2-----2-------------------|
G|--2--2-2-2--0-0-0-0-0-0-0-0-0-0-0-0--|  x2
D|---0--0------2-2-----0-0-----0-0-----| 
A|-------------------------------------|
E|-------------------------------------|

I dress up bright tonight and needing the beat
Dance into the speakers and max up the volume
Feel so high tonight and moved by my feet
My heart in the speakers is loving the volume

In "Pretty Vacant" I'm jumping jumping
In "Pretty Vacant" I'm moving moving
In "Teaches Of Peaches" I'm speeding speeding
In "Teaches Of Peaches" I'm moving moving

Turn it up turn it up turn it up turn it up
Turn it up turn it up turn it up turn it up
Turn me on

In "Delia's Gone" "I'll Keep It With Mine" "Birdland" "Clouds"
In "Sous Le Soleil Exactement" "Sunshine Superman" "I Want You" "Ghosts"
In "Some Velvet Morning" "Paper Wings" "Virginia Avenue" "Laura"
In "Summer's Almost Over" "I Walk the Line" "A Night Like This" "Strange Fruit"

In "Hatful Of Hollow" I'm diving diving
In "Hatful Of Hollow" I'm screaming screaming
In "Boys" and "Voodoo" I'm living living
In "Boys" and "Voodoo" I'm screaming screaming

Turn it up turn it up turn it up turn it up
Turn it up turn it up turn it up turn it up
Turn me on!


E|-------------------3-----3-2-----2---|
B|-2------2--2-----2-------------------|
G|--2--2-2-2--0-0-0-0-0-0-0-0-0-0-0-0--|       
D|---0--0------2-2-----0-0-----0-0-----| x3 
A|-------------------------------------|
E|-------------------------------------|



there we go!
now you can play turn it up (hopefully!).

            
            
Suggest correction
Creating personal tab
Creating personal tab
You can edit any tab online and save it as your Personal.

You can edit, replace or remove any tab part or add personal notes – all changes will be seen only by you.

Personal tabs can be accessed anytime from any device, even offline.
Learn more »
Give kudos to tab author, rate the tab!
1 2 3 4 5
comments
print report bad tab
1 comment total.
0 reply
polka_dot44 63 May 06, 2008 10:16 AM

E|-------------------3-----3-2-----2---|i apologize, i got the
A|-2------2--2-----2-------------------|xylophone bit wrong. it's the
D|--2--2-2-2--0-0-0-0-0-0-0-0-0-0-0-0--|wrong way round because i got
G|---0--0------2-2-----0-0-----0-0-----| the notes mixed up.
B|-------------------------------------|this is what it should be.
E|-------------------------------------|

guest
You may want to rate the tab now too:
select rating
Wanna post a correction for this tab? Suggest correction