Oops, an error
Loading. Please wait.

Break The Silence chords

16 views 1 this week
no commentswrite comment
1 2 3 4 5
3 more votes to show rating
add to favorites
×
Save as Personal and add changes to this tab that will be seen only by you. Learn more ›
×
You can save this tab as Personal to edit and correct it or add notes. All changes will be seen only by you. Learn more »
launch autoscroll
font size
0
reset
transpose
0
reset
display chords
guitar tuner
edit
Autoscroll
slow
fast
+/-
esc
set tempo
stop
Strumming
There is no strumming pattern for this song yet. and get +5 IQ
-------------------------------------------------------------------------
                               Artist - Rocket Scientist
                              ***************************
                               Song - Break The Silence
                              **************************
                             Album - Oblivion Days (1999)
                            ******************************
                                 Tabbed By - Ayreon77
                                **********************
-------------------------------------------------------------------------
Tuning = Standard


--------------
CAPO 1st FRET
--------------


------------------------------
INTRO
******
Piano C#m F#m C#m


Acoustic
F#m     D  E

------------------------------
00:31
EBOW SOLO - F#m    D    Bm  D  E X2
**********
e|------------------------------------|------------------------------------|
B|---------s-------s------s--s------s-|---------s-------s------s--s------s-|
G|-3~~-0--3\8~~-5~~\15~~~-\14\12~~~~\-|-3~~-0--3\8~~-5~~\14~~~-\15\12~~~~\-|
D|------------------------------------|------------------------------------|
A|------------------------------------|------------------------------------|
E|------------------------------------|------------------------------------|


e|------------------------------------------------------------------|
B|---------s-------s------s--s------s--s-----s-----s--s-----------s-|
G|-3~~-0--3\8~~-5~~\15~~~-\14\12~~~~\14\15~~~\14~~~\15\17~~~~~~~~~\-|
D|------------------------------------------------------------------|
A|------------------------------------------------------------------|
E|------------------------------------------------------------------|X2


------------------------------
01:06
BREAK
******
F#m    C#m  F#m   E D C#m


------------------------------
01:24
VERSE 1
********
G#m       C#m
Break the silence
E                 C#m
Right in front of me
G#m       F#m
There's A window
E              C#m
Over looks the sea
E                  A
Lightning strikes across the sky
E              C#m
Oceans full of dreams that died
E             A           C#m
Time is never on your side


------------------------------
VERSE 2
********
G#m       C#m
Break the silence
E                 C#m
Ashes through the rain
G#m       F#m
Lower the curtain
E                 C#m
Lights out on the stage
    E               A
The million colored waves will rise
G#m            C#m
Oceans swollow paradise
E              A           C#m
Water from the moonlit sky
G#m        C#m
Breaks the silence


--------------------------------
02:38
EBOW SOLO - F#m    D    Bm  D  E X2
**********
e|------------------------------------|------------------------------------|
B|---------s-------s------s--s------s-|---------s-------s------s--s------s-|
G|-3~~-0--3\8~~-5~~\15~~~-\14\12~~~~\-|-3~~-0--3\8~~-5~~\14~~~-\15\12~~~~\-|
D|------------------------------------|------------------------------------|
A|------------------------------------|------------------------------------|
E|------------------------------------|------------------------------------|


e|------------------------------------------------------------------|
B|---------s-------s------s--s------s--s-----s-----s--s-----------s-|
G|-3~~-0--3\8~~-5~~\15~~~-\14\12~~~~\14\15~~~\14~~~\15\17~~~~~~~~~\-|
D|------------------------------------------------------------------|
A|------------------------------------------------------------------|
E|------------------------------------------------------------------|X2


--------------------------------
03:12
SOLO - F#m      C#m   F#m     E D    C#m
*****
 Feedback
e|--|------------------------------|--------------------|
B|-15--b-18--b---rbp----b-----b----|--rbp-----p---------|
G|----17----17--17--15-17-17-17~~~-|-17--15-17-15-----s-|
D|---------------------------------|--------------17~~\-|
A|---------------------------------|--------------------|
E|---------------------------------|--------------------|

   UB                           b    b
e|-15---rbp-------b--------|-17~~-15~~-13~~~-|
B|-18--18--15-18-18-15~~~~-|-----------------|
G|-------------------------|-----------------|
D|-------------------------|-----------------|
A|-------------------------|-----------------|
E|-------------------------|-----------------|


------------------------------
03:39
HAMMOND ORGAN - F#m          E  D  C#m
**************

------------------------------
04:49
EBOW SOLO - F#m    D    Bm  D  E X2
**********
e|------------------------------------|------------------------------------|
B|---------s-------s------s--s------s-|---------s-------s------s--s------s-|
G|-3~~-0--3\8~~-5~~\15~~~-\14\12~~~~\-|-3~~-0--3\8~~-5~~\14~~~-\15\12~~~~\-|
D|------------------------------------|------------------------------------|
A|------------------------------------|------------------------------------|
E|------------------------------------|------------------------------------|


e|------------------------------------------------------------------|
B|---------s-------s------s--s------s--s-----s-----s--s-----------s-|
G|-3~~-0--3\8~~-5~~\15~~~-\14\12~~~~\14\15~~~\14~~~\15\17~~~~~~~~~\-|
D|------------------------------------------------------------------|
A|------------------------------------------------------------------|
E|------------------------------------------------------------------|X2


------------------------------
04:25
SYNTH - F#m    E  D     C#m
******

------------------------------
04:45
VERSE 3
********
G#m       C#m
Break the silence
E                 C#m
Waves are rolling in
G#m      F#m
Hold the circle
E                 C#m
Shead this mortal skin
E                  A
Lightning strikes across the sky
E              C#m
Oceans full of dreams that died
E             A           C#m
Time is never on your side


------------------------------
05:25
OUTRO
******
E                 A
One last breath a final sigh
G#m          C#m
As the water rises high
E             A
Memories of a life gone by
G#m       C#m
Break the silence.



ENJOY.............

            
            
Suggest correction
Creating personal tab
Creating personal tab
You can edit any tab online and save it as your Personal.

You can edit, replace or remove any tab part or add personal notes – all changes will be seen only by you.

Personal tabs can be accessed anytime from any device, even offline.
Learn more »
Give kudos to tab author, rate the tab!
1 2 3 4 5
comments
print report bad tab
guest
You may want to rate the tab now too:
select rating
Wanna post a correction for this tab? Suggest correction