Oops, an error
Loading. Please wait.

Sin Saber De Ti tab

13 views 1 this week
no commentswrite comment
1 2 3 4 5
3 more votes to show rating
add to favorites
×
Save as Personal and add changes to this tab that will be seen only by you. Learn more ›
×
You can save this tab as Personal to edit and correct it or add notes. All changes will be seen only by you. Learn more »
launch autoscroll
font size
0
reset
how to read this tab
guitar tuner
edit
Autoscroll
slow
fast
+/-
esc
set tempo
stop
Intro - GUITARRA RITMICA (bis)

e|-----0---------0---------2---------2---------|
b|-------3---------3---------3---------3-------|
g|---2---------2---------0---------0-----------|
D|-4---------4---------2---------2-------------|
A|---------------------------------------------|
E|---------------------------------------------|

(bis)
e|-----0---------0---------2---------2---------|
b|-------3---------3---------3---------3-------|
g|---2---------2---------0---------0-----------| Quisiera dejar de soñarte
D|-4---------4---------2---------2-------------| No ser las memorias que
A|---------------------------------------------| tengo de ti
E|---------------------------------------------|

G           A                   Bm7
Dejar tus recuerdos tirados por otros
  A
Vivirte por fin

e|-----0---------0---------2---------2---------|
b|-------3---------3---------3---------3-------|
g|---2---------2---------0---------0-----------| Quisiera alejar de mi
D|-4---------4---------2---------2-------------| mente Un pasado triste
A|---------------------------------------------| que nunca existió
E|---------------------------------------------|

G            A                 Bm7
Traerte un momento y verte de nuevo
  A
No estar así

Em             D(bajo F#)
Por más que lo intente
Em                    D
Las cosas que digo se vuelven  a mi
Em          D
Si sigo esperando
  G               A
No quiero quedarme sin saber de ti

e|-----0---------0---------2---------2---------|
b|-------3---------3---------3---------3-------|
g|---2---------2---------0---------0-----------| Quisiera de alguna manera
D|-4---------4---------2---------2-------------| Vivir más tranquilo sin
A|---------------------------------------------| imaginar
E|---------------------------------------------|

G             A                    Bm7
Que intentas buscarme y aún no me Encuentras
 A
Aparece ya

Em              D(bajo F#)
Por más que lo intente
Em                    D
Las cosas que digo se vuelven a mí
Em           D
Si sigo esperando
 G                A             Bm7
No quiero quedarme sin saber de ti
             D
Son dos días más
             G
Sin saber de ti
             A
Aún sigo esperándote
Bm7         D
Cuando pasará
           G
Este frenesí
      A
Este amor y esta espera

CORO (punteo)

Em           D(bajo F#)
Por más que lo evite
Em                     D
Las cosas que digo se vuelven a mí
Em          D
Si sigo esperando
  G               A
No quiero quedarme sin saber de ti

Final
e|-----0---------0---------2---------2---------|
b|-------3---------3---------3---------3-------|
g|---2---------2---------0---------0-----------|
D|-4---------4---------2---------2-------------|
A|---------------------------------------------|
E|---------------------------------------------|

            
            
Suggest correction
Creating personal tab
Creating personal tab
You can edit any tab online and save it as your Personal.

You can edit, replace or remove any tab part or add personal notes – all changes will be seen only by you.

Personal tabs can be accessed anytime from any device, even offline.
Learn more »
Give kudos to tab author, rate the tab!
1 2 3 4 5
comments
print report bad tab
guest
Wanna post a correction for this tab? Suggest correction