Oops, an error
Loading. Please wait.

Boy Kulot chords

21,356 views 21 this week
3 commentsread comments
1 2 3 4 5
1 last vote to show rating
add to favorites
×
Save as Personal and add changes to this tab that will be seen only by you. Learn more ›
×
You can save this tab as Personal to edit and correct it or add notes. All changes will be seen only by you. Learn more »
launch autoscroll
font size
0
reset
transpose
0
reset
display chords
guitar tuner
edit
Autoscroll
slow
fast
+/-
esc
set tempo
stop
Author
Difficulty
Strumming
There is no strumming pattern for this song yet. and get +5 IQ
                   Boy Kulot


Intro:
    
    D - G - B - A (2X)

Verse:

         D            G              B-A
     Minsan ako ay nag-punta sa Mall

         D                         G        B-A
     Nakita ko ang tropa kong si Boy Kulot

                D                 G           B-A
     May kasamang Bebot,kumikembot sa my second floor

              D              G                 B-A
     Magkahawak ang kamay, nakasakay sa escalator


Refrain:

         B
     Dali-dali kong tinawag

         A
     At paglingon ni Kumag

         B
     Bigla akong napasigaw ng

           A
     Hoy! Hoy! Syota ko yan...


Chorus:

            D
          Hoy Boy Kulot 

                     G
          Bakit mu sinulot?

                     B-A
          Ang syota kong Harot......

                           (4X)

             D-G-B-A

Verse2:

              D                     G       B-A
          Nilapitan ko si Kulot at si Harot

                  D                  G      B-A
          Sa galit ko sabay silang napalunok
                                                             
             D                       G                     B-A
          Para akong engot na binabangungot sa galing nyo mag-paikot

              D                G               B-A
          Tumakbo na kayo at mag-tago sa Lelang nyong panot


Refrain2:

                 B
           Wala ng paliwanag
           
                  A
           At wag ka ng umilag

                   B
           Ang Sabi ng kamao ko ay

                   A
           Hoy! Hoy! syota ko yan.... 




                Repeat Chorus...


Bridge:

                  D
           Basta Kulot Salot

                  G
           Basta Kulot Salot

                   B
           Basta Kulot Salot    
 
                  A
           Basta Kulot Salot



              Repeat Chorus....


           -end-


---paxenxa n sa solo im still working on it p hehehe.
Ako nga pla si harold santos 16 yrs old lang paki 
rate na lang itong chords na ginawa ko... tnx at 
binabati ko ung mga banda ko na sina dexter arca(manager),
natalie figueroa(wife ni manager), james saguid(guitar/bass),
 lordan padilla(itlog buster),bryan magannig(beat box/drums) ,
 danice macasarte(vocals) at ako n lead guitarist at kmi ang bandang "SECTION 13".... Tnx----

            
            
Suggest correction
Creating personal tab
Creating personal tab
You can edit any tab online and save it as your Personal.

You can edit, replace or remove any tab part or add personal notes – all changes will be seen only by you.

Personal tabs can be accessed anytime from any device, even offline.
Learn more »
Give kudos to tab author, rate the tab!
1 2 3 4 5
comments
print report bad tab
3 comments total.
+1 reply
143xa 53 Sep 23, 2008 02:05 AM

For The Intro:

e||--------------------|------17------------|---------15------------|
B||-----15--------17---|--------------------|-15--17------17--15----|
G||----------14--------|-14-----------14----|--------------------14-|
D||--------------------|--------------------|-----------------------|
A||--------------------|--------------------|-----------------------|
E||--------------------|--------------------|-----------------------|
(x3)

e||-------------------|-------------------|-------------------|
B||---------------7---|-------------8-7---|-------------------|
G||--------7--9-------|-----9--7----------|----9--7-----------|
D||--7--9-------------|-------------------|-------------------|
A||-------------------|-------------------|-------------------|
E||-------------------|-------------------|-------------------|


I hope it's correct.. :D Kaklase ko kapangalan mo.. :D wala lang.. 14 pa lng xa.. hahaha \m/

galing mo tol!! thanks sa chords!! mahusay!!

0 reply
_harold_ 52 Sep 28, 2008 04:57 AM

Boy Kulot
By Rocksteddy
Tabbed by: Kyle Harold Santos

Corection lang poh ito dun sa gnawa kong 1st chords n2ng kantang to...
Intro:

e|---------------------------------|
B|---------------------------------|
G|--7------------------------------|
D|--7----5----9----7---------------|
A|--5----5----9----7---------------|
E|-------3----7----5---------------|


e|---------------------------------|
B|-----------10-0-8-0-7h8p7--------|
G|--7-0-9-0------------------0-----|
D|---------------------------------|
A|---------------------------------|
E|---------------------------------|


Verse:


e|--------------------------------------|
B|--------------------------------------|
G|--7-----------------------------------|
D|--7-----5-------9-7-5-7---------------|
A|--5-----5-------9-7-5-7---------------|
E|--------3-------7-5-3-5---------------|

Minsan ako ay nag-punta sa Mall


e|--------------------------------------|
B|--------------------------------------|
G|--7-----------------------------------|
D|--7-----5-------5h7-5h7-5h7-5h7-------|
A|--5-----5-------5h7-5h7-5h7-5h7-------|
E|--------3-------3h5-3h5-3h5-3h5-------|

Nakita ko ang tropa kong si Boy Kulot


e|--------------------------------------|
B|--------------------------------------|
G|--7-----------------------------------|
D|--7-----5-------9-7-5-7---------------|
A|--5-----5-------9-7-5-7---------------|
E|--------3-------7-5-3-5---------------|

May kasamang Bebot,kumikembot sa my second floor


e|--------------------------------------|
B|--------------------------------------|
G|--7-----------------------------------|
D|--7-----5-------5h7-5h7-5h7-5h7-------|
A|--5-----5-------5h7-5h7-5h7-5h7-------|
E|--------3-------3h5-3h5-3h5-3h5-------|

Magkahawak ang kamay, nakasakay sa escalator


Refrain:

e|--------------------------------------|
B|--------------------------------------|
G|--4-----------------------------------|
D|--4------------7----------------------|
A|--2------------7----------------------|
E|---------------5----------------------|2X


e|--------------------------------------|
B|--------------------------------------|
G|--------------------------------------|
D|------7----------7-------7-------7----|
A|--8-7--------8-7-----8-7-----8-7------|
E|--------------------------------------|2X

Chorus:

e|--------------------------------------|
B|--------------------------------------|
G|--7-----------------------------------|
D|--7-----5-------9-7-5-7---------------|
A|--5-----5-------9-7-5-7---------------|
E|--------3-------7-5-3-5---------------|4X


ung adlib poh nxt tym ipopost ko....tnx poh pa rate na din ng tabs ko....thx...

0 reply
jeak 140 Jun 20, 2009 12:42 AM

tol Great!!!! hehe tama rin pla kapa ko d2.... ahm.. baguhan lng ako eh.. now ko lng na Visit 2.. ^_^ anyway
Continue lng po sa paggawa ng mga tabs....
la kc me sariling pc 4 composing tabs and chords...
un lng cge till new come song/s ^^, Godbless

guest
You may want to rate the tab now too:
select rating
Wanna post a correction for this tab? Suggest correction