Oops, an error
Loading. Please wait.

Imposible tab

version 1
version 1

Whole song

1,246 views 1 this week
3 commentsread comments
1 2 3 4 5
1 last vote to show rating
add to favorites
×
Save as Personal and add changes to this tab that will be seen only by you. Learn more ›
×
You can save this tab as Personal to edit and correct it or add notes. All changes will be seen only by you. Learn more »
launch autoscroll
font size
0
reset
how to read this tab
guitar tuner
edit
Autoscroll
slow
fast
+/-
esc
set tempo
stop
Author
Difficulty
Imposible
Artist: Rocksteddy
Tabbed by: Kiel Suarez
Length: 7:12
Album: Tsubtsatagilidakeyn
Tuning: Standard


Intro:

                     D9
E|-----------------------------------------------|
B|--2-1----------------2-1-----------------------|
G|--1-1-1--1--0--1--1--1-1-1--1--0--1------------|
D|--0-0-0-0--0--0--0---0-0-0-0--0--0-------------|
A|-----------------------------------------------|
E|-----------------------------------------------|--> 2x


Verse I

                     D9
E|-----------------------------------------------|
B|--2-1----------------2-1-----------------------|
G|--1-1-1--1--0--1--1--1-1-1--1--0--1------------|
D|--0-0-0-0--0--0--0---0-0-0-0--0--0-------------|
A|-----------------------------------------------|
E|-----------------------------------------------|--> 2x

Kanina pa naghihintay
Malayo na ang nalakabay

     C9       G
E|-----3---3---3---|
B|----3-3-3---3-3--|
G|---0-0-0---0-0---|
D|-----------------|
A|--3---3----------|
E|----------5------|

Nitong bubblegum sa isipan...



D9              G
Teka muna ligo muna 'ko
D9                    G
Mabilis lang to Di na ko magsasabon
D9              G
Teka muna kain muna ko
D9                    G
Sandali lang to di na ko maguulam
Bm           C9 [pastrum na ung dating]
Ng sabaw sa daan

Chorus:
    D        G  
O dalhin mo naman ako
    Bm       C9
Sa dulo ng mundo
    D            G           Bm-C9          
At dalhin mo na rin ang puso ko
    D         G
O dalhin mo naman ako
Bm           C9
Sa dulo ng mundo
       D         G         Bm       C9
Dahil dito sa pag-ibig ay walang imposible

Interlude...

E|-----------10-/-11-10------------------10-/-11-10-11-------|
B|--7-8-/-10------------10-8-7-8-/-10-10---------------10----|
G|-----------------------------------------------------------|
D|-----------------------------------------------------------|
A|-----------------------------------------------------------|
E|-----------------------------------------------------------|

E|-----------11-10-------------------------------------------|
B|--7-8-/-10-------10-8-7-/-8-3h5------------------10--------|
G|-----------------------------------------------------------|
D|-----------------------------------------------------------|
A|-----------------------------------------------------------|
E|-----------------------------------------------------------|



Verse II [parehas lang po ung chords sa Verse I]

Teka muna hinay hinay lang
At nahihilo na
Pwede ba tayong humiga
Steady muna
Sandali lang po hintayin mo ko                  
Pwede ba tayong maglakad ng sabay sa daan

Repeat chorus 

Adlib:[D - G - Bm - C9]

Repeat Chorus...

---End---



            
            
Suggest correction
Creating personal tab
Creating personal tab
You can edit any tab online and save it as your Personal.

You can edit, replace or remove any tab part or add personal notes – all changes will be seen only by you.

Personal tabs can be accessed anytime from any device, even offline.
Learn more »
Give kudos to tab author, rate the tab!
1 2 3 4 5
comments
print report bad tab
3 comments total.
0 reply
kiel_rs 174 Jul 18, 2006 01:02 AM

mali mo yata ung nagawa ko dun sa interlude part...eto po ung tama...

E|-----------10-9---------------------10-9-10----------------|
B|--7-8-/-10------10-8-7-8-/-10-10------------10-------------|
G|-----------------------------------------------------------|
D|-----------------------------------------------------------|
A|-----------------------------------------------------------|
E|-----------------------------------------------------------|

E|-----------10-9--------------------------------------------|
B|--7-8-/-10-------10-8-7-/-8-3h5----------------------------|
G|-----------------------------------------------------------|
D|-----------------------------------------------------------|
A|-----------------------------------------------------------|
E|-----------------------------------------------------------|

sorry :D

0 reply
kiel_rs 174 Jul 19, 2006 12:54 AM

po*

0 reply
strogs 10 Aug 03, 2006 02:24 AM

solo rin wala...chka kulang yung interlude...heheheh..

guest
You may want to rate the tab now too:
select rating
Wanna post a correction for this tab? Suggest correction