Oops, an error
Loading. Please wait.

Sunlight chords

version 2
version 2

Whole song

16 views 1 this week
no commentswrite comment
1 2 3 4 5
3 more votes to show rating
add to favorites
×
Save as Personal and add changes to this tab that will be seen only by you. Learn more ›
×
You can save this tab as Personal to edit and correct it or add notes. All changes will be seen only by you. Learn more »
launch autoscroll
font size
0
reset
transpose
0
reset
display chords
guitar tuner
edit
Autoscroll
slow
fast
+/-
esc
set tempo
stop
Author
Difficulty
Strumming
There is no strumming pattern for this song yet. and get +5 IQ
Sunlight By Rocky Votolato 

[Verse]
D                                   G
Rundown and run over I watched the cars wheels as they covered
       Bm                                 G                     A
Up the last of the green pastures in Stillwater; Been lost somewhere
D                                     G
Truth you went looking for is still hiding under a miracle
Bm                                G                   A
Till you fall you never know what you’ve been standing on

[Chorus]
G                                         D
Oh, mental health where have you been hiding?
        A                 Bm
These illusions can be so blinding
G                             D
Look at all the beautiful colors
             A                                            
Blue lines, white lines, sunlight bleeding out from the corner

e|-2--2--2p0--3--3---3p2p0h2--2p0---------|
B|-3--3-------3--3-------3-3--3---2-2-2h3-|
G|-4--4-------0--0-------2-2--2---2-2-----|
D|-4--4-------0--0----------------2-2-----|
A|-2--2-------2--2------------------------|
E|-2--2-------3--3------------------------|

Where you drew it sunlight waits in a world we knew
e|-2--2--2p0--3--3---3p2p0h2--2p0---------|
B|-3--3-------3--3-------3-3--3---2-2-2h3-|
G|-4--4-------0--0-------2-2--2---2-2-----|
D|-4--4-------0--0----------------2-2-----|
A|-2--2-------2--2------------------------|
E|-2--2-------3--3------------------------|


[Harmonica part]
 D G Bm G A

[Verse]
Em                                       Bm                        A 
Till you fall you never know what you’ve been holding onto for so long
G                                  D
The day that I realized what I wanted 
A                                    Bm
These illusions they can be so blinding
G                              D
Look at all the beautiful colors 
             A                                          
Blue lines, white lines, sunlight bleeding out from the corner

e|-2--2--2p0--3--3---3p2p0h2--2p0---------|
B|-3--3-------3--3-------3-3--3---2-2-2h3-|
G|-4--4-------0--0-------2-2--2---2-2-----|
D|-4--4-------0--0----------------2-2-----|
A|-2--2-------2--2------------------------|
E|-2--2-------3--3------------------------|

Where you drew it sunlight waits in a world we knew
e|-2--2--2p0--3--3---3p2p0h2--2p0---------|
B|-3--3-------3--3-------3-3--3---2-2-2h3-|
G|-4--4-------0--0-------2-2--2---2-2-----|
D|-4--4-------0--0----------------2-2-----|
A|-2--2-------2--2------------------------|
E|-2--2-------3--3------------------------|

Where you drew it sunlight look like it might be true
e|-2--2--2p0--3--3---3p2p0h2--2p0---------|
B|-3--3-------3--3-------3-3--3---2-2-2h3-|
G|-4--4-------0--0-------2-2--2---2-2-----|
D|-4--4-------0--0----------------2-2-----|
A|-2--2-------2--2------------------------|
E|-2--2-------3--3------------------------|

Where you drew it sunlioght waits in a world we knew
e|-2--2--2p0--3--3---3p2p0h2--2p0---------|
B|-3--3-------3--3-------3-3--3---2-2-2h3-|
G|-4--4-------0--0-------2-2--2---2-2-----|
D|-4--4-------0--0----------------2-2-----|
A|-2--2-------2--2------------------------|
E|-2--2-------3--3------------------------|



************************************

| h  Hammer-on
| p  Pull-off
 

************************************

            
            
Suggest correction
Creating personal tab
Creating personal tab
You can edit any tab online and save it as your Personal.

You can edit, replace or remove any tab part or add personal notes – all changes will be seen only by you.

Personal tabs can be accessed anytime from any device, even offline.
Learn more »
Give kudos to tab author, rate the tab!
1 2 3 4 5
comments
print report bad tab
guest
You may want to rate the tab now too:
select rating
Wanna post a correction for this tab? Suggest correction