Oops, an error
Loading. Please wait.

I Dont Want To Talk About It tab

version 3
version 3

Whole song

Interactive

1,042 views 3 this week
no commentswrite comment
1 2 3 4 5
2 more votes to show rating
add to favorites
×
Save as Personal and add changes to this tab that will be seen only by you. Learn more ›
×
You can save this tab as Personal to edit and correct it or add notes. All changes will be seen only by you. Learn more »
launch autoscroll
font size
0
reset
how to read this tab
guitar tuner
edit
Autoscroll
slow
fast
+/-
esc
set tempo
stop
Author
Difficulty
I DON'T WANT TO TALK ABOUT IT

As recorded by Rod Stewart
(From the 1975 Album ATLANTIC CROSSING)

Words and Music by Danny Whitten

Transcribed by Slowhand


Gtr I (E A D G B E) - 'Jesse Ed Davis - 12-string Acoustic Guitar'
Gtr II (E A D G B E) - 'Jimmy Johnson - Acoustic Guitar'
Gtr III (E A D G B E) - 'Steve Cropper - Electric Guitar'
Gtr IV (E A D G B E) - 'Steve Cropper - Electric Guitar'
Gtr V (E A D G B E) - 'Steve Cropper - Electric Guitar'


 Intro
  Q=67
              C#m7
 1/4         4/4
  Gtr I (Ac. 12-string Gtr.)
  W           S S S S S  S S S  S S S  S S S    S   S
|-----------|----------------------------------12-----|
|-----------|-9------------9------9------9----------9-|
|-----------|---9---9--------9------9------9----------|
|-----------|-----9---9-------------------------------|
|-----------|-----------11-----11-----11--------------|
|-----------|-----------------------------------------|
|
| Gtr II (Ac. Gtr.)
|                                        |---3----|
| S S T T S   S S E   Q         Q        E   E    E
|-7-7-------|-------------------4---------------------|
|-9-7-------|---------5---------------------------5---|
|-----8s6---|-----4--------------------------4--------|
|---------4-|-4h6------------------------6------------|
|-----------|-----------------------------------------|
|-----------|-----------------------------------------|


  F#7
   S  S S  S  S S  S S  S  S S  S  S S  S S
|-------0-------0----0-------0-------0-------|
|------------11-------------------11---------|
|-11------11------11---11------11------11-9--|
|----11-------------------11-----------------|
|--------------------------------------------|
|--------------------------------------------|
|
|  S  S E     Q         S  S S  S  S S  S S
|--------------------------------------------|
|-------------7---------7----7--7--7s5--5----|
|-------6------------------------------------|
|--6s=8--------------------8--------------6--|
|--------------------------------------------|
|--------------------------------------------|


  B
  S S  S S S S S S S S S S S S S S   S S S S S S S S S S S S S S S S
|-0--------7---------------7-------|---7-----7---------7-----7-------||
|---7----------7---7-----7-----7---|---------------------------------||
|------8-----8---8-----8-----8---8-|-----8-----8---8-----8-----8---8-||
|--------------------9-------------|---------------------------------||
|--------9-------------------------|-9-----9-----9---9-----9-----9---||
|----------------------------------|---------------------------------||
|
| S E.     E   E   Q       S S S S   S S S S S S S S H
|----------------------------------|---------------------------------||
|-5s4----------4-----------7s5-4h5-|-4h5-4h5-4h5-4h5-4---------------||
|----------4---------------8s6-4h6-|-4h6-4h6-4h6-4h6-4---------------||
|----------------------------------|---------------------------------||
|----------------------------------|---------------------------------||
|----------------------------------|---------------------------------||


   1st & 2nd Verses
    C#m7
    S S S S S  S S S  S S S  S S S  S S
||--------------------------------------|
||o-9------------9------9------9------9-|
||----9---9--------9------9------9------|
||------9---9---------------------------|
||o-----------11-----11-----11-----11---|
||--------------------------------------|
|
|   E   E   E    E    E   E    E    S S
||--------------------------------------|
||o---------5------------------5------5-|
||------4--------4--------4---------4---|
||--6-----------------6-----------------|
||o-------------------------------------|
||--------------------------------------|


  F#7
   S  S S  S  S S  S S  S  S S  S  S S  S S
|-------0-------0----0-------0-------0----0--|
|------------11-------------------11---------|
|-11------11------11---11------11------11----|
|----11-------------------11-----------------|
|--------------------------------------------|
|--------------------------------------------|
|
|  E    E     E    E    E    E     E    E
|-------------6--------------------6---------|
|-------7----------7---------7----------7----|
|--------------------------------------------|
|-/8--------------------8--------------------|
|--------------------------------------------|
|--------------------------------------------|


  B
  S S S S S S S S S S S S S S S S   S S S S S S S S S S   S   S S S S S
|-0-------7---------------7-------|---7-----7---------7---------7-------|
|---7---------7---7-----7-----7---|-------------------------------------|
|-----8-----8---8-----8-----8---8-|-----8-----8---8-------8-------8---8-|
|-------------------9-------------|-------------------------------------|
|-------9-------------------------|-9-----9-----9---9---------9-----9---|
|---------------------------------|-------------------------------------|
|
|                                                   |---3---|
| E   E   S S S S E   E   S S S S   E   E   S S S S E   E   E   E   E
|---------2---------------2-------|---------2-------2-------------------|
|-----4-----2-----2---------2-----|-2---------2---------2---------------|
|-4-----------4-------4-------4---|-----4-------4-----------4-------4---|
|---------------4---------------4-|---------------4-------------4-------|
|---------------------------------|-------------------------------------|
|---------------------------------|-------------------------------------|


  C#m7
   S S S S S  S S S  S S S  S S S  S S
|--------------------------------------|
|--9------------9------9------9------9-|
|----9---9--------9------9------9------|
|------9---9---------------------------|
|------------11-----11-----11-----11---|
|--------------------------------------|
|
|  E   E   E    E    E   E    S S  S S
|--------------------4-----------------|
|----------5-------------5------5------|
|------4--------4-------------4----4---|
|-/6---------------------------------6-|
|--------------------------------------|
|--------------------------------------|


  F#7
   S  S S  S  S S  S S  S  S S  S  S S  S S
|-------0-------0----0-------0-------0----0-|
|------------11-------------------11--------|
|-11------11------11---11------11------11---|
|----11-------------------11----------------|
|-------------------------------------------|
|-------------------------------------------|
|
|  E    E     E    E    E    E     S S  S S
|-------------------------------------------|
|-------------7--------------------7--------|
|-------6----------6---------6-------6----6-|
|--8--------------------8---------------8---|
|-------------------------------------------|
|-------------------------------------------|


  B
  S S S S S S S  S  S S S S S S S S   S S S S S S S S S S S S S S S S
|-0-------7-----------------7-------|---7-----7---------7-----7-------||
|---7---------7-----7-----7-----7---|---------------------------------||
|-----8-----8----8------8-----8---8-|-----8-----8---8-----8-----8---8-||
|---------------------9-------------|---------------------------------||
|-------9---------------------------|-9-----9-----9---9-----9-----9---||
|-----------------------------------|---------------------------------||
|
| E   E   E   S  S  S S S S E   S S   S S S S S S S S E   S S S S E
|---------7--------11---9---7-------|-----7-----7---------------------||
|-7-----------------------------7h9-|-7h9---7h9---7h9-7---7-7-7-7-7---||
|-----8-------9s11------------------|---------------------6-8-6-8-6---||
|-----------------------------------|---------------------------------||
|-----------------------------------|---------------------------------||
|-----------------------------------|---------------------------------||


 Chorus
  $
  E
  S S S S S S S S S S S S S S S S
|-7-7-7-7-7-7-7-7-7-7-7-7-7-7-7-7-|
|-9-9-9-9-9-9-9-9-9-9-9-9-9-9-9-9-|
|-9-9-9-9-9-9-9-9-9-9-9-9-9-9-9-9-|
|-9-9-9-9-9-9-9-9-9-9-9-9-9-9-9-9-|
|-7-7-7-7-7-7-7-7-7-7-7-7-7-7-7-7-|
|---------------------------------|
|
| E   E   E   E   E   E   S S S S
|-----------------4---------------|
|---------5-----------5---------5-|
|-----4-------4-----------4---4---|
|-6-------------------------6-----|
|---------------------------------|
|---------------------------------|


  F#7
   S  S  S  S  S  S  S  S  S  S  S  S  S  S  S  S
|--9--9--9--9--9--9--9--9--9--9--9--9--9--9--9--9-|
|-11-11-11-11-11-11-11-11-11-11-11-11-11-11-11-11-|
|--9--9--9--9--9--9--9--9--9--9--9--9--9--9--9--9-|
|-11-11-11-11-11-11-11-11-11-11-11-11-11-11-11-11-|
|--9--9--9--9--9--9--9--9--9--9--9--9--9--9--9--9-|
|-------------------------------------------------|
|
|  E     E     E     E     E     E     E     E
|--------------------------6----------------------|
|--------------7-----------------7----------------|
|--------6-----------6-----------------6----------|
|-/8-----------------------------------------8----|
|-------------------------------------------------|
|-------------------------------------------------|


  B               F#/A#              G#m7
  S S S S S S S S  S S S S S S S S   S S S S S S S S S S S S S S S S
|-7-7-7-7-7-7-7-7--6-6-6-6-6-6-6-6-|-4-4-4-4-4-4-4-4-4-4-4-4-4-4-4-4-|
|-7-7-7-7-7-7-7-7--7-7-7-7-7-7-7-7-|-4-4-4-4-4-4-4-4-7-7-7-7-7-7-7-7-|
|-8-8-8-8-8-8-8-8--6-6-6-6-6-6-6-6-|-4-4-4-4-4-4-4-4-4-4-4-4-4-4-4-4-|
|-9-9-9-9-9-9-9-9--8-8-8-8-8-8-8-8-|-4-4-4-4-4-4-4-4-4-4-4-4-4-4-4-4-|
|-9-9-9-9-9-9-9-9--9-9-9-9-9-9-9-9-|-6-6-6-6-6-6-6-6-6-6-6-6-6-6-6-6-|
|-7-7-7-7-7-7-7-7--6-6-6-6-6-6-6-6-|-4-4-4-4-4-4-4-4-4-4-4-4-4-4-4-4-|
|
| S S E   E   E    E   S S E   E     E   E   e   S S S S S S S S S S
|--------------------------6-------|---------4---6---6s7-7---7s6-6---|
|-----4----------------7-------7---|-----4---------------------------|
|---4-----4--------------8---------|---------------6-------8-------6-|
|-4-----------4---/8---------------|-6-------------------------------|
|----------------------------------|---------------------------------|
|----------------------------------|---------------------------------|


  E
  S S  S S S S S S S S S S S S S S
|-7-7--7-7-7-7-7-7-7-7-7-7-7-7-7-7-|
|-9-9--9-9-9-9-9-9-9-9-9-9-9-9-9-9-|
|-9-9--9-9-9-9-9-9-9-9-9-9-9-9-9-9-|
|-9-9--9-9-9-9-9-9-9-9-9-9-9-9-9-9-|
|-7-7--7-7-7-7-7-7-7-7-7-7-7-7-7-7-|
|----------------------------------|
|
| S E.     E   S S E   E   E   E
|-6s4----------------------4-------|
|----------------------5-------4---|
|------------------4---------------|
|--------------4s6-----------------|
|----------------------------------|
|----------------------------------|


  F#7
   S  S  S  S  S  S  S  S  S  S  S  S  S  S  S  S
|--9--9--9--9--9--9--9--9--9--9--9--9--9--9--9--9-|
|-11-11-11-11-11-11-11-11-11-11-11-11-11-11-11-11-|
|--9--9--9--9--9--9--9--9--9--9--9--9--9--9--9--9-|
|-11-11-11-11-11-11-11-11-11-11-11-11-11-11-11-11-|
|--9--9--9--9--9--9--9--9--9--9--9--9--9--9--9--9-|
|-------------------------------------------------|
|
|  E     E     S  S  E     S  S  S  S  S  S  S  S
|--------------------6-----------------7--6-------|
|--------------7-----------------7-----------7----|
|--------6--------6-----------6-----6-----------6-|
|--8----------------------------------------------|
|-------------------------------------------------|
|-------------------------------------------------|


  E                                 F#7
  S S S S S S S S S S S S S S S S     W
|-7-7-7-7-7-7-7-7-7-7-7-7-7-7-7-7-|-^-9----|
|-9-9-9-9-9-9-9-9-9-9-9-9-9-9-9-9-|-^11----|
|-9-9-9-9-9-9-9-9-9-9-9-9-9-9-9-9-|-^-9----|
|-9-9-9-9-9-9-9-9-9-9-9-9-9-9-9-9-|-^11----|
|-7-7-7-7-7-7-7-7-7-7-7-7-7-7-7-7-|-^-9----|
|---------------------------------|--------|
|
| E   E   E   E   E   S S S S S S     W
|-----------------4---------------|--------|
|---------5-----------5-------5---|---7----|
|-----4-------4---------4---4---4-|---6----|
|-6-----------------------6-------|---8----|
|---------------------------------|--------|
|---------------------------------|--------|


  C#m7                          F#7sus4
  S S S S S S S S S S S S S S S  S
|----------------------------------|
|-9-----9-----9-----9-----9-----12-|
|---9-----9-----9-----9-----9------|
|-----9-----9-----9-----9-----9----|
|----------------------------------|
|----------------------------------|
|
| S S S S S S S S S S S S S S S  S
|----------------------------------|
|---------5---------------5--------|
|-----6-------6-------6-------6----|
|---6---6---6---6---6---6---6----6-|
|----------------------------------|
|----------------------------------|


   S S  S  S S  S  S S  S  S S  S  S S  S  S
|----0-------0-------0-------0-------0-------|
|-12------12------12------12------12------12-|
|--------------------------------------------|
|--------------------------------------------|
|------11------11------11------11------11----|
|--------------------------------------------|
|
|  H                    H
|-^7-------------------^7--------------------|
|-^5-------------------^5--------------------|
|-^6-------------------^6--------------------|
|-^6-------------------^6--------------------|
|--------------------------------------------|
|--------------------------------------------|


                                    1.
                           To Coda
  B
  S S S S S S S S S S S S S S S S    S S S S S S S S S S S S S S S S
|---------7---------------7-----7--|---------7-----7---------7-----7---||
|-------7-----7---7-----7-----7----|-7-----7-----7---7-----7-----7----o||
|-----8-----8---------8-----8------|-----8-----8---------8-----8-------||
|---9-----------9---9--------------|---9---------------9---------------||
|----------------------------------|----------------------------------o||
|-7--------------------------------|-----------------------------------||
|
| S S S S S S S S S S S S S S S S    S S S S S S S S S S S S S S E
|----------------------------------|-----------------------------------||
|-----4---4---4-------4---4---4----|-----4-----4-----4---4-------4----o||
|---4---4---4---4---4---4---4---4--|---4---4-6---6-4---4---4-4h6-------||
|-4---------------4----------------|-----------------------------------||
|----------------------------------|----------------------------------o||
|----------------------------------|-----------------------------------||


                                      Guitar Solo
  2.
  B                                    C#m7
  S S S S S S S S S S S S  S S  S S     S    S S S  S     S  S S  S    S S  S  S    S  S S
|---7-----7-----7---7------7------7-||-----------------------------------------------------|
|-----7-----7---------7------7------||--9--------------------9---------9-------9---------9-|
|-------8-----8---------8-------8---||-------9---9-------------9---------9----------9------|
|-9---------------9-----------------||---------9----9--------------------------------------|
|-----------------------------------||-------------------11------11--------11---------11---|
|-----------------------------------||-----------------------------------------------------|
|
| Gtr III (El. Gtr. w/ light dist.)
|                                       ~~~~~                     ~~~~~
| H               Q        E    E       Q           E        E    Q            E       E
|-----------------------------------||-----------------------------------------------------|
|------------------------------16---||-16b17-------16b17----16---16b17--------16b17---16---|
|-------------------------16--------||-----------------------------------------------------|
|-----------------------------------||-----------------------------------------------------|
|-----------------------------------||-----------------------------------------------------|
|-----------------------------------||-----------------------------------------------------|
|
| Gtr IV (El. Gtr. w/ light dist.)
|                                       ~~~~~                     ~~~~~
| H               Q        E    E       Q           E        E    Q            E       E
|-----------------------------------||-----------------------------------------------------|
|--------------------------9---12---||-12b14-------12b14----12---12b14--------12b14---12---|
|-----------------------------------||-----------------------------------------------------|
|-----------------------------------||-----------------------------------------------------|
|-----------------------------------||-----------------------------------------------------|
|-----------------------------------||-----------------------------------------------------|


  F#7
   S     S S  S  S    S  S S  S  S  S     S  S S  S S
|----------0----------0----0--------0----------0----0---|
|---------------11--------------------------11----------|
|-11---------11---------11---11----------11------11-----|
|-------11----------------------11----------------------|
|-------------------------------------------------------|
|-------------------------------------------------------|
|
|  ~~~~~                            ~~~~~
|  Q             E       E    E     Q             E
|-------------------------------------------------------|
|-16b17---------16b17---16---17----17b19---------17-----|
|-------------------------------------------------------|
|-------------------------------------------------------|
|-------------------------------------------------------|
|-------------------------------------------------------|
|
|  ~~~~~                            ~~~~~
|  Q             E       E    E     Q             E
|-------------------------------------------------------|
|-12b14---------12b14---12---14----14b16---------14-----|
|-------------------------------------------------------|
|-------------------------------------------------------|
|-------------------------------------------------------|
|-------------------------------------------------------|


  B
   S S S S  S S  S S  S S S S  S S  S S
|--0--------7------------------7--------|
|----7-----------7----7-----7-------7---|
|------8------8----8------8------8----8-|
|-----------------------9---------------|
|--------9------------------------------|
|---------------------------------------|
|
|  ~~                 ~~
|  Q        E    E    Q        E    E
|---------------------------------------|
|-16-------16---17---16-------16---17---|
|---------------------------------------|
|---------------------------------------|
|---------------------------------------|
|---------------------------------------|
|
|  ~~                 ~~
|  Q        E    E    Q        E    E
|---------------------------------------|
|-12-------12---14---12-------12---14---|
|---------------------------------------|
|---------------------------------------|
|---------------------------------------|
|---------------------------------------|


   S S S S  S S  S S  S     S   S  S  S S  S S
|----7------7---------------7---------7--------|
|----------------------------------------------|
|------8------8----8------------8-------8----8-|
|----------------------------------------------|
|--9-----9-------9----9------------9-------9---|
|----------------------------------------------|
|
|  ~~
|  Q        E    E    E        +E     E    E
|----------------------------------------------|
|-16-------16---17---17pb19r==(17)---16---16---|
|----------------------------------------------|
|----------------------------------------------|
|----------------------------------------------|
|----------------------------------------------|
|
|  ~~
|  Q        E    E    E        +E     E    E
|----------------------------------------------|
|-12-------12---14---14pb16r==(14)---12---13---|
|----------------------------------------------|
|----------------------------------------------|
|----------------------------------------------|
|----------------------------------------------|


  C#m7
   S    S S S  S     S  S S  S    S S  S  S     S   S  S
|--------------------------------------------------------|
|--9--------------------9---------9-------9------------9-|
|-------9---9-------------9---------9-----------9--------|
|---------9----9-----------------------------------------|
|-------------------11------11--------11-----------11----|
|--------------------------------------------------------|
|
|  ~~~~~                     ~~~~~
|  Q           E        E    Q            E         E
|--------------------------------------------------------|
|-16b17-------16b17----16---16b17--------16b17-----16----|
|--------------------------------------------------------|
|--------------------------------------------------------|
|--------------------------------------------------------|
|--------------------------------------------------------|
|
|  ~~~~~                     ~~~~~
|  Q           E        E    Q            E        +E
|--------------------------------------------------------|
|-12b14-------12b14----12---12b14--------12pb14r==(12)---|
|--------------------------------------------------------|
|--------------------------------------------------------|
|--------------------------------------------------------|
|--------------------------------------------------------|


  F#7
   S  S  S      S  S S  S S   S   S S  S  S     S   S  S
|--------0-----------0----0---------0-----------0------0-|
|-----------------11---------------------11--------------|
|-11-----------11------11----11-------11-----------11----|
|----11--------------------------11----------------------|
|--------------------------------------------------------|
|--------------------------------------------------------|
|
|        ~~~~~~~~~~~~~~~~~~~~~~~~
|  E     Q.                  +Q           E        +E
|--------------------------------------------------------|
|-17----17pb19r=============(17)---------17pb19r==(17)---|
|--------------------------------------------------------|
|--------------------------------------------------------|
|--------------------------------------------------------|
|--------------------------------------------------------|
|
|        ~~~~~~~~~~~~~~~~~~~~~~~~
|  E     Q.                  +Q           E        +E
|--------------------------------------------------------|
|-14----14pb16r=============(14)---------14pb16r==(14)---|
|--------------------------------------------------------|
|--------------------------------------------------------|
|--------------------------------------------------------|
|--------------------------------------------------------|


  B
   S S  S S S S S S S S   S  S S S S S
|--0--------7------------------7-------|
|----7----------7---7--------7-----7---|
|-------8-----8---8-------8------8---8-|
|---------------------9----------------|
|---------9----------------------------|
|--------------------------------------|
|
|       ~~~~~~~~~~~~~~~~~~~~~
|  E    H                +Q.
|--------------------------------------|
|-16-----------------------------------|
|------16---------------(16)-----------|
|--------------------------------------|
|--------------------------------------|
|--------------------------------------|
|
|       ~~~~~~~~~~~~~~~~~~~~~
|  E    H                +Q.
|--------------------------------------|
|-12-----------------------------------|
|------11---------------(11)-----------|
|--------------------------------------|
|--------------------------------------|
|--------------------------------------|


                           D.S. al Coda
    S S S S  S S S S  S S S S  S S S S
|-----7------7----------7------7---------||
|----------------------------------------||
|-------8------8---8------8------8---8---||
|----------------------------------------||
|---9-----9------9----9-----9------9-----||
|----------------------------------------||
|
|   Q        Q        Q        Q
|----------------------------------------||
|-/16-------14---------------------------||
|--------------------16-------14---------||
|----------------------------------------||
|----------------------------------------||
|----------------------------------------||
|
|   Q        Q        Q        Q
|----------------------------------------||
|-/12-------10--------9--------7---------||
|----------------------------------------||
|----------------------------------------||
|----------------------------------------||
|----------------------------------------||


  &
  B                                        C#m7
  S S S S S S S S S S   S S  S S  S S      S S S S S S S S S S S S S S S S
|---7-----7-----9---7--------7------9-|----7-----7-----7---7-----7-----7----|
|-------7-----7-----------7-------7---|------9-----9-----9---9-----9-----9--|
|-----8-----8-----------8------8------|--------9-----9---------9-----9------|
|-9---------------9-------------------|-------------------------------------|
|-------------------------------------|-------------------------------------|
|-------------------------------------|-------------------------------------|
|
| Gtr V (Clean El. Gtr.)
| H               E     E    E    E      a W
|---------------------/11---11---11---|-11s9--------------------------------|
|-------------------------------------|-------------------------------------|
|---------------------/11---11---11---|-11s9--------------------------------|
|-------------------------------------|-------------------------------------|
|-------------------------------------|-------------------------------------|
|-------------------------------------|-------------------------------------|


  F#7
   S S  S  S S  S  S S  S S  S  S S  S  S S
|----0-------0-------0----0-------0-------0-|
|-12------12------12---12------12------12---|
|-------------------------------------------|
|-------------------------------------------|
|------11------11-----------11------11------|
|-------------------------------------------|
|
|  W
|-------------------------------------------|
|-------------------------------------------|
|-------------------------------------------|
|-------------------------------------------|
|-------------------------------------------|
|-------------------------------------------|


  S S S S  S  S S S S S S S S S S S
|---7------7------7---6-----6-----6-|
|-----7-------7---------7-----7-----|
|-------8-------8---------6-----6---|
|-----------------------------------|
|-----------------------------------|
|-7-----------------6---------------|
|
| E   S S +E    e   E   E   E   e
|-------7-(7)-----------------------|
|-----------------------7---7-------|
|-----9---------9---------------9---|
|-----------------------------------|
|-----------------------------------|
|-----------------------------------|


  G#m              C
  S  S S S S S S S   S  S S S S S  S S
|----4-----4-----4------8-----8------8-||
|------4-----4------------8-----8------||
|--------4-----4------------9------9---||
|--------------------------------------||
|--------------------------------------||
|-4------------------8-----------------||
|
| Q.           E     Q.            E
|--------------------------------------||
|--------------9---/13------------13---||
|-8------------------------------------||
|--------------------------------------||
|--------------------------------------||
|--------------------------------------||


  Dm7
   S   S  S  S  S  S  S  S  S   S  S  S  S  S   S  S
|----------------------------------------------------|
|-----------10----------10-----------10-----------10-|
|-10-----10----10----10----10-----10----10-----10----|
|-----10----------10-----------10----------10--------|
|----------------------------------------------------|
|----------------------------------------------------|
|
|  Q.                 E     Q.                  E
|--------------------10----10------------------------|
|-10------------------------------------------/12----|
|----------------------------------------------------|
|----------------------------------------------------|
|----------------------------------------------------|
|----------------------------------------------------|


  G7
   S  S  S  S  S  S  S  S  S  S  S  S  S  S  S  S
|-------------------------------------------------|
|-12----------12----------12----------12----------|
|-------10----------10----------10----------10----|
|----12----12----12----12----12----12----12----12-|
|-------------------------------------------------|
|-------------------------------------------------|
|
|  H                       Q           S  S  S  S
|-10--------------------------------------7--8-10-|
|-------------------------------------------------|
|-----------------------------------------7--9-10-|
|-------------------------------------------------|
|-------------------------------------------------|
|-------------------------------------------------|


  C
   S  S  S  S  S  S  S  S  S  S  S  S  S  S  S  S
|--------------------------------------------------|
|--8--------8--------8--------8--------8-----------|
|-----9--------9--------9--------9--------9-----9--|
|-------10-------10-------10-------10-------10-----|
|--------------------------------------------------|
|--------------------------------------------------|
|
|  S  S  S  S  S  S  S  S  S  S  S  S  S  S  S  S
|-10s12-12-10s12-12-10s12-12-10s12-12-10s12-12-10s=|
|--------------------------------------------------|
|-10s12-12-10s12-12-10s12-12-10s12-12-10s12-12-10s=|
|--------------------------------------------------|
|--------------------------------------------------|
|--------------------------------------------------|


   S  S  S  S  S  S  S  S  S  S  S  S  S  S  S  S
|-------------------------------------------------|
|--8--------8--------8--------8--------8----------|
|-----9--------9--------9--------9--------9-----9-|
|-------10-------10-------10-------10-------10----|
|-------------------------------------------------|
|-------------------------------------------------|
|
|  S  S  S  S  S  S  S  S  S  S  S  S  S  S  S  S
|-12-12-10s12-12-10s12-12-10s12-12-10s12-12-10s12-|
|-------------------------------------------------|
|-12-12-10s12-12-10s12-12-10s12-12-10s12-12-10s12-|
|-------------------------------------------------|
|-------------------------------------------------|
|-------------------------------------------------|


  Dm7
   S  S  S  S   S   S  S  S  S  S  S  S   S   S     S     S
|-----------------------------------------------------------|
|----------10------------10----------10------------------10-|
|-10----10-----10-----10----10----10-----10--------10-------|
|----10------------10----------10------------10-------------|
|-----------------------------------------------------------|
|-----------------------------------------------------------|
|
|                                         |-----3------|
|  S  S  E     +H                        +E      E     E
|-12s10-10----(10)----------------------(10)s===12----12----|
|-----------------------------------------------------------|
|-12s10-10----(10)----------------------(10)s===12----12----|
|-----------------------------------------------------------|
|-----------------------------------------------------------|
|-----------------------------------------------------------|


  G7
   S  S   S  S   S   S  S  S  S  S  S  S  S  S  S  S
|----------------------------------------------------|
|-12------------12-----------12----------12----------|
|--------10------------10----------10----------10----|
|----12-----12------12----12----12----12----12----12-|
|----------------------------------------------------|
|----------------------------------------------------|
|
|  S  E.        +H                        E     S  S
|-12s10--------(10)----------------------------------|
|----------------------------------------------------|
|-12s10--------(10)-------------------------------/9-|
|----------------------------------------------------|
|----------------------------------------------------|
|----------------------------------------------------|


  C
  S S  S S S  S S S  S  S S  S S S  S  S
|----------------------------------------|
|-8------8------8-------8------8---------|
|---9------9------9-------9------9-----9-|
|-----10-----10-----10------10-----10----|
|----------------------------------------|
|----------------------------------------|
|
| H                 +Q.             S  S
|-8-----------------(8)-------------8-10-|
|----------------------------------------|
|-----------------------------------9-10-|
|----------------------------------------|
|----------------------------------------|
|----------------------------------------|


  C7
    S  S S  S   S  S  S  S S S S S S S S S
|------------------------------------------||
|---8-------8---------8------8-----8-------||
|------9--------9--------9-----9-----9---9-||
|--------8---------8-------8-----8-----8---||
|------------------------------------------||
|------------------------------------------||
|
|   E.      S  +E     S  S E   S S E   E
|-/12------10-(10)------10s8-----8s6-------||
|------------------------------------------||
|-/12------10-(10)---10--------9-------7---||
|------------------------------------------||
|------------------------------------------||
|------------------------------------------||


 Outro
  F
  S  S  S  S S  S  S  S S  S  S  S S  S  S  S
|---------------------------------------------|
|---------10---------10---------10---------10-|
|------10---------10---------10---------10----|
|---10---------10---------10---------10-------|
|-8----------8----------8----------8----------|
|---------------------------------------------|
|
| H                     Q          E     S  S
|-5--------------------------------------5--6-|
|---------------------------------------------|
|-5--------------------------------------5--6-|
|---------------------------------------------|
|---------------------------------------------|
|---------------------------------------------|


  G7
   S  S  S  S  S  S  S  S  S   S  S  S  S  S    S    S
|------------------------------------------------------|
|----------12----------12-----------12--------------12-|
|-------10----------10-----------10------------10------|
|----12----------12-----------12----------12-----------|
|-10----------10----------10-----------10--------------|
|------------------------------------------------------|
|
|                                       |----3----|
|  H                       E.        S  E    E    E
|--7--------------------------------/5--5----3----3----|
|------------------------------------------------------|
|--7--------------------------------/5--5----4----4----|
|------------------------------------------------------|
|------------------------------------------------------|
|------------------------------------------------------|


  F
  S  S   S  S  S   S  S  S S  S  S  S S  S  S  S
|------------------------------------------------|
|----------10-----------10---------10---------10-|
|-------10-----------10---------10---------10----|
|---10------------10---------10---------10-------|
|-8------------8-----------8----------8----------|
|------------------------------------------------|
|
| S  E.       +H                      Q
|-3--1--------(1)--------------------------------|
|------------------------------------------------|
|-4--2--------(2)--------------------------------|
|------------------------------------------------|
|------------------------------------------------|
|------------------------------------------------|


  G7
    W                    +W
|-^10-----------------|-(10)----*|
|-^12-----------------|-(12)----*|
|-^10-----------------|-(10)----*|
|-^12-----------------|-(12)----*|
|-^10-----------------|-(10)----*|
|---------------------|---------*|
|
|   S S S S Q  +H        +W
|---7s6s7s6s7--(7)----|--(7)----*|
|---------------------|---------*|
|---7s6s7s6s7--(7)----|--(7)----*|
|---------------------|---------*|
|---------------------|---------*|
|---------------------|---------*|


Duration Legend
---------------
W - whole; H - half; Q - quarter; E - 8th; S - 16th; T - 32nd; X - 64th; a - acciaccatura
+ - note tied to previous; . - note dotted; .. - note double dotted
Uncapitalized letters represent notes that are staccato (1/2 duration)
Irregular groupings are notated above the duration line
Duration letters will always appear directly above the note/fret number it represents the
duration for.  Duration letters with no fret number below them represent rests.  Multi-
bar rests are notated in the form Wxn, where n is the number of bars to rest for.  Low
melody durations appear below the staff

Tablature Legend
----------------
 h   - hammer-on
 p   - pull-off
 b   - bend
 pb  - pre-bend
 r   - bend release (if no number after the r, then release immediately)
 /\  - slide into or out of (from/to "nowhere")
 s   - legato slide
 S   - shift slide
  - natural harmonic
[n]  - artificial harmonic
n(n) - tapped harmonic
 ~   - vibrato
 tr  - trill
 T   - tap
 TP  - trem. picking
 PM  - palm muting
\n/  - tremolo bar dip; n = amount to dip
 \n  - tremolo bar down
 n/  - tremolo bar up
/n\  - tremolo bar inverted dip
 =   - hold bend; also acts as connecting device for hammers/pulls
 <>  - volume swell (louder/softer)
 x   - on rhythm slash represents muted slash
 o   - on rhythm slash represents single note slash

Misc Legend
-----------
 |  - bar
||  - double bar
||o - repeat start
o|| - repeat end
*|  - double bar (ending)
 :  - bar (freetime)
 $  - Segno
 &  - Coda
Tempo markers -  = BPM(8/16=s8/s16), where s8 = swing 8ths, s16 = swing 16ths



I can tell by your eyes that you've probably been cryin' forever, 
And the stars in the sky don't mean nothin' to you, they're a mirror.
I don't want to talk about it, how you broke my heart.
If I stay here just a little bit longer, 
If I stay here, won't you listen to my heart, whoa, my heart?

If I stand all alone, will the shadow hide the color of my heart?
Blue for the tears, black for the night's fears.
The stars in the sky don't mean nothin' to you, they're a mirror.
I don't want to talk about it, how you broke my heart.
If I stay here just a little bit longer, 
If I stay here, won't you listen to my heart, whoa, my heart?
I don't want to talk about it, how you broke this ol' heart.

If I stay here just a little bit longer, 
If I stay here, won't you listen to my heart, whoa, my heart
My heart, whoa, my heart.

            
            
Suggest correction
Creating personal tab
Creating personal tab
You can edit any tab online and save it as your Personal.

You can edit, replace or remove any tab part or add personal notes – all changes will be seen only by you.

Personal tabs can be accessed anytime from any device, even offline.
Learn more »
Give kudos to tab author, rate the tab!
1 2 3 4 5
comments
print report bad tab
guest
You may want to rate the tab now too:
select rating
Wanna post a correction for this tab? Suggest correction