Oops, an error
Loading. Please wait.

Tuyo tab

version 1
version 1

Whole song

  • I make this tab with https://youtu.be/1oH0nlNge-c ... Show more
  • This is the version Rodrigo plays live, taken from... Show more

Interactive

29,524 views 423 this week
3 commentsread comments
1 2 3 4 5
x 19
add to favorites
×
Save as Personal and add changes to this tab that will be seen only by you. Learn more ›
×
You can save this tab as Personal to edit and correct it or add notes. All changes will be seen only by you. Learn more »
launch autoscroll
font size
0
reset
how to read this tab
guitar tuner
edit
Autoscroll
slow
fast
+/-
esc
set tempo
stop
Author
-------------------------------------------------------------------------------
                             Tuyo (Narcos theme) - Rodrigo Amarante
-------------------------------------------------------------------------------
Tabbed by: Martijnfru

Info: This song is heard in the intro of the awesome Netflix series 'Narcos'
      (https://www.youtube.com/watch?v=PtJ6yAGjsIs).
      The first part of vocals contains no electric guitar. You can play the chords 
      during that segment. 

Tuning: Standard


 Intro
e|--16-15-14---------------------17-16-15-14---------------------------------|
B|-----------17-16-14-14h16---------------------17-16-17-14-14---------------|
G|------------------------13-13----------------------------------------------|
D|---------------------------------------------------------------------------|
A|---------------------------------------------------------------------------|
E|---------------------------------------------------------------------------|

e|--16-15-14------------------------------------------14-17-16-17-16---------|
B|-----------17-16-14-14h16-14-13--13-14-16--14-16-17------------------------|
G|---------------------------------------------------------------------------|
D|---------------------------------------------------------------------------|
A|---------------------------------------------------------------------------|
E|---------------------------------------------------------------------------|
  
         C#m               F#m
Soy el fuego que arde tu piel
G#7             C#m
Soy el agua que mata tu sed
                 F#m
El castillo, la torre yo soy
G#7             C#m       C#7
La espada que guarda el caudal
                 F#m
Tu el aire que respiro yo
B7           E
Y la luz de la luna en el mar

La garganta que ancio mojar
G#7                 C#m
Que temo ahogar de amor

 (Little transition riff)
e|---------------------------------------------------------------------------|
B|--10-9---------------------------------------------------------------------|
G|-------11-9-8--------------------------------------------------------------|
D|--------------11-----------------------------------------------------------|
A|-----------------11-12-----------------------------------------------------|
E|---------------------------------------------------------------------------|

G#7                 C#m
Que temo ahogar de amor
F#m                    C#m
Y cuales deseos me vas adar
F#m                  G#7
Mi tesoro basta con mirarlo
C#m       G#7     C#m
Tuyo sera, y tuyo sera

 Outro starts with the last line
e|--16-15-14-----------------------------------------------------------------|
B|-----------17---16-13-14--14-13-10-9-10--9-7-14-16-14-17-------------------|
G|---------------------------------------------------------------------------|
D|---------------------------------------------------------------------------|
A|---------------------------------------------------------------------------|
E|---------------------------------------------------------------------------|

            
            
Suggest correction
Creating personal tab
Creating personal tab
You can edit any tab online and save it as your Personal.

You can edit, replace or remove any tab part or add personal notes – all changes will be seen only by you.

Personal tabs can be accessed anytime from any device, even offline.
Learn more »
comments
print report bad tab
3 comments total.
+2 reply
canneloni 10 Oct 12, 2016 07:36 AM

There is a small error in the last bit of the Intro. It should be like this:

e|---------14-17-16-14-17-16---------|
B|14-16-17---------------------------|
G|-----------------------------------|
D|-----------------------------------|
A|-----------------------------------|
E|-----------------------------------|

The Rest is great, thank you! :)

+1 reply
madborder 10 May 04, 2017 12:27 AM

After the intro you can play

E|---------------------------------
B|--------------------------------
G|--------13--------13---------
D|----14----14----14----------
A|-16---------------16----------
E|---------------------------------

0 reply
frank66sports1 10 Sep 08, 2017 12:19 PM

Nice! Love this Theme, thanx

guest
You may want to rate the tab now too:
select rating
Wanna post a correction for this tab? Suggest correction