Oops, an error
Loading. Please wait.

Desapareciendo chords

version 2
version 2

Whole song

24 views 1 this week
no commentswrite comment
1 2 3 4 5
3 more votes to show rating
add to favorites
×
Save as Personal and add changes to this tab that will be seen only by you. Learn more ›
×
You can save this tab as Personal to edit and correct it or add notes. All changes will be seen only by you. Learn more »
launch autoscroll
font size
0
reset
transpose
0
reset
simplify chords
display chords
guitar tuner
edit
Autoscroll
slow
fast
+/-
esc
set tempo
stop
Strumming
There is no strumming pattern for this song yet. and get +5 IQ
Amadd9
--------0-----------------------------------E
------2-------------------------------------B
----4---------------------------------------G
-3------------------------------------------D
--------------------------------------------A
--------------------------------------------E

Amadd9/G

--------0-----------------------------------E
------2-------------------------------------B
----4---------------------------------------G
--------------------------------------------D
--------------------------------------------A
-3------------------------------------------E

Amadd9/F#
---------0-----------------------------------E
-------2-------------------------------------B
-----4--------------------------------------G
-------------------------------------------D
--------------------------------------------A
---2-----------------------------------------E

Carp4sus2
-------------------------------------------E
----2--------------------------------------B
--1----------------------------------------G
-------------------------------------------D
-------------------------------------------A
1------------------------------------------E
 Amadd9  Amadd9/G  Amadd9/F#    Carp4sus2

esta        noche         oi    tu    voz
no fue algo verdadero

no se si es que existió

o fue desapareciendo...

 
Am9         Dm4/C
Me fallaste tantas veces
F               G        Amadd9
no basta con pedir perdón

 

Yo no puedo entender

porque me estas mintiendo

no tienes corazón?

o fue desapareciendo...

 
F                             G
Y cada cosa tuya me lleva donde tí
C                        Am4
no puedo escaparme y desistir...
F                             G
Y cuando pase el tiempo me puedo arrepentir
C                        Am4
yo quiero estar contigo y sin final

 

Despierto donde estoy

otro día más sin verte

se acabo todo el alcohol?

O fué desapareciendo...

 

Me fallaste tantas veces

no basta con decir perdón

 

Ahora pienso en vos

sentado y en silencio

se acabó todo tu amor?

O fué despareciendo...

 

Y cada cosa tuya me lleva donde tí

no puedo escaparme y desistir...

y cuando pase el tiempo me puedo arrepentir

yo quiero estar contigo y sin final

voz


Espero que les agrade y puedan sacarla, 
sale mejor en una guitarra de doce cuerdas
y  mejor aun en el tono D# que creo que saben
que es el favorito del grillo
cualquier duda, amenaza, invitacion a salir o 
simplemente ganas de joderme 
tienen mi correo


Para Campanita QEPD

            
            
Suggest correction
Creating personal tab
Creating personal tab
You can edit any tab online and save it as your Personal.

You can edit, replace or remove any tab part or add personal notes – all changes will be seen only by you.

Personal tabs can be accessed anytime from any device, even offline.
Learn more »
Give kudos to tab author, rate the tab!
1 2 3 4 5
comments
print report bad tab
guest
Wanna post a correction for this tab? Suggest correction