Oops, an error
Loading. Please wait.

Chac Mool tab

version 1
version 1

Whole song

Interactive

10,173 views 12 this week
1 commentread comment
1 2 3 4 5
x 7
add to favorites
×
Save as Personal and add changes to this tab that will be seen only by you. Learn more ›
×
You can save this tab as Personal to edit and correct it or add notes. All changes will be seen only by you. Learn more »
launch autoscroll
font size
0
reset
how to read this tab
guitar tuner
edit
Autoscroll
slow
fast
+/-
esc
set tempo
stop
Author
Difficulty
____________________________________________________________________________________
Tab description
____________________________________________________________________________________

Song:   Chac Mool
Artist: Rodrigo y Gabriela
Album:  11:11

Tabber: Lionel Ringenbach
Email:  ringenbach.lionel@gmail.com
Date:   April 24th, 2010

This the easiest Rod y Gab song to play but is still a real pleasure to play.
Using a looper to play this song is a real help!

For any comments or suggestion you can use the mail address above.

NB: If you notice that something is going wrong in the tab, please comment and send me
suggestions using the comment function or my email address. This is a best choice than
a bad rating, then copying and posting the tab with your own corrections, which will be 
more confusing for other users. Thank you.


_________________________________________________________________________________
Rodrigo: standard tuning, no capo
____________________________________________________________________________________

This intro is to be played 8 times all along the song

       Em        G         ?         Em

e|-----------------------------------------|
B|-----------------------------------------|
G|--------0---------0---------2---------0--|
D|------2---------0---------3---------2----|
A|----2---------3---------4---------2------|
E|--0---------2---------2---------0--------|

After the 6th intro riff, Rodrigo joins Gabriela's riff with this part

e|------------------------------------------------------------------------------------|
B|------------------------------------------------------------------------------------|
G|--12-12-11-12/14-12--16-16-14-14/16\14-12--11/16-16-16-14-14--12-12-11-12-12/14-12--|
D|------------------------------------------------------------------------------------|
A|------------------------------------------------------------------------------------|
E|------------------------------------------------------------------------------------|


____________________________________________________________________________________
Gabriela: standard tuning, no capo
____________________________________________________________________________________

After the 4th intro riff, Gabriela starts playing this part all along the song

e|-----------------------------------------------------------------------|
B|-----------------------------------------------------------------------|
G|--9-9-7-9/11-9--12-12-11-11/12\11-9--7/12-12-12-11-11--9-9-7-9-9/11-9--|
D|-----------------------------------------------------------------------|
A|-----------------------------------------------------------------------|
E|-----------------------------------------------------------------------|


____________________________________________________________________________________
Chords
____________________________________________________________________________________

Em  (0 2 2 0 0 0)
G   (2 3 0 0 2 2)

            
            
Suggest correction
Creating personal tab
Creating personal tab
You can edit any tab online and save it as your Personal.

You can edit, replace or remove any tab part or add personal notes – all changes will be seen only by you.

Personal tabs can be accessed anytime from any device, even offline.
Learn more »
comments
print report bad tab
1 comment total.
+2 reply
LaughingCoyote2 10 Feb 18, 2014 06:13 AM

e|-----------------------------------------|
B|-----------------------------------------|
G|--------0---------0---------2---------0--|
D|------2---------0---------4---------2----|
A|----2---------2---------5---------2------|
E|--2---------5---------0---------2--------|

Tuning: Drop-D (DadgbE)
These are the slow strums that repeat throughout the song.

guest
You may want to rate the tab now too:
select rating
Wanna post a correction for this tab? Suggest correction