Oops, an error
Loading. Please wait.

New One tab

version 2
version 2

Whole song

4,772 views 18 this week
3 commentsread comments
1 2 3 4 5
x 4
add to favorites
×
Save as Personal and add changes to this tab that will be seen only by you. Learn more ›
×
You can save this tab as Personal to edit and correct it or add notes. All changes will be seen only by you. Learn more »
launch autoscroll
font size
0
reset
how to read this tab
guitar tuner
edit
Autoscroll
slow
fast
+/-
esc
set tempo
stop
Author
Difficulty
  / = Slide up
  \ = Slide down
  h = hammer-on
  p = pull-off
  * = Palm mute
  b = bend

  I slowed down this song using Audacity to help me figure it out, so I'm positive 
everything is right except for a few small things.
  First, the intro might have a mistake or two, because sometimes it's hard to pull 
apart the two guitars.
  Second, in Interlude 2, there are 3 sections of 6 notes that are played very fast. I'm 
99% sure about the third,
  95% sure about the second, but the first one not so much.

  I assume that the intro is Rodrigo and Gabriela playing together, and not just 
Rodrigo, because it's tough
  to play both lines with one guitar. But I put both of them together if you want to try 
it just to see what
  it sounds like. The high guitar is on top, and the other is written right below.

  Last thing, if you don't have Audacity, I swear by its magical powers. In all 
seriousness, you can slow down songs (without affecting pitch!)
  to practice along and slowly build up speed, slow it down to a ridculously slow speed 
to figure new songs out, loop sections over and over
  that you want to practice, and tons more. I never would have figured out this song 
without it. And it's free for download!

  Comments/suggestions welcome!

  INTRO

E|-----------------------------------------------------------------------------------|
B|-8/10--8--8--6--5/6\5----8b9---6----8b9---6----8/10--8--8--6--5/6\5----8---10-8-7--|
G|-9/10--9--9--7--6/7\6----9b10--7----9b10--7----9/10--9--9--7--6/7\6----8---10-8-7--|
D|-----------------------------------------------------------------------------------|
A|-----------------------------------------------------------------------------------|
E|-----------------------------------------------------------------------------------|

E|------------6---9b10--9b10--5-5--9--9---------------------------|
B|-7-8-9--10--8---10b11-10b11-5-5--10-10-----11-10h11--10h11--10--|
G|-7-9-10-11---------------------------------12-10h12--10h12--10--|
D|----------------------------------------------------------------|
A|----------------------------------------------------------------|
E|----------------------------------------------------------------|

E|-6/8---6-5-------------------------------------4--|
B|-8/10--8-6---8-5-------------------------------5--|
G|-------------9-5--5--3----5/7--5-------4/7--------|
D|------------------7--5----7/8--7-7--3--6/9--6-----|
A|---------------------------------8--5-------7-----|
E|--------------------------------------------------|

E|-9h10p9------------12h13p12----------17--|
B|-10h11p10----11-8--14h15p14---14-11--17--|
G|-------------12-9-------------15-12------|
D|-----------------------------------------|
A|-----------------------------------------|
E|-----------------------------------------|

  MAIN RIFF 1 (0:29)

E|----------------------------------------------|
B|----------8------------8----------------------|
G|-7-9-10-7-----7-9-10-7---10-10--9-9-7-9-10-7--|
D|----------------------------------------------|
A|----------------------------------------------|
E|----------------------------------------------|

E|-----------------------------------------------------------|
B|----------11-----------11--10-10--8-8----8-10--------------|
G|-7-9-10-7-----7-9-10-7----------------10------9------------|
D|------------------------------------------------10-7-7/10--|
A|-----------------------------------------------------------|
E|-----------------------------------------------------------|

E|-------------10-12-13----------------9h10p9----------------------------|
B|----------10----------11-11----10-11--------11-10---10-8-8h10p8--------|
G|-----7/10-----------------------------------------9-------------10-10--|
D|-7-0-------------------------------------------------------------------|
A|-----------------------------------------------------------------------|
E|-----------------------------------------------------------------------|

E|---------------------------------------------------------------|
B|---------------------------------------------------------------|
G|-10-9-7----7-9-10-7--9-10-9-------9-7--7/10--9---10/12--10-----|
D|-----------------------------------------------------------11--|
A|------------------------------7-8------------------------------|
E|---------------------------------------------------------------|

  MAIN RIFF 2 (0:59) (Just a bit different from Main Riff 1)

E|--------------------------------------------------------------------------|
B|----------8------------8--------------------------------------------------|
G|-7-9-10-7-----7-9-10-7---10-10--9-9-7-9-10-7-------6-7-9-10--9h10p9--7-7--|
D|-------------------------------------------------7------------------------|
A|--------------------------------------------------------------------------|
E|--------------------------------------------------------------------------|

E|------------------------------------------------------------|
B|----------11-----------11--10-10--8-8----8-10---------------|
G|-7-9-10-7-----7-9-10-7----------------10------9-------------|
D|------------------------------------------------10-7--7/10--|
A|------------------------------------------------------------|
E|------------------------------------------------------------|

E|-------------10-12-13----------------15--13h15p13--12-------13--12h13p12--10-10--|
B|----------10----------11-11----10-11---------------------10----------------------|
G|-----7/10---------------------------------------------12-------------------------|
D|-7-0-----------------------------------------------------------------------------|
A|---------------------------------------------------------------------------------|
E|---------------------------------------------------------------------------------|

E|--------------------------------------12-10--10/13--12-15-13-9--|
B|----------------------------------------------------------------|
G|-10-9-7----7-9-10-7---9-10-9-----9-10---------------------------|
D|----------------------------------------------------------------|
A|----------------------------------------------------------------|
E|----------------------------------------------------------------|

  INTERLUDE 1 (1:31)

E|----------------------------------------------------|
B|-6p8--6p8--6------------10--8---------10/11--10-----|
G|----------------------9--------10--9------------10--|
D|-------------8------7-------------------------------|
A|----------------------------------------------------|
E|----------------------------------------------------|

E|------------------------------------------------------------------------------------|
B|---------------------------8-11-10--------------------------------------------------|
G|-------------------7-10--8---------10/7--7-----9-7-6--7--9--10/12--10h12p10--9------|
D|-----------7-10--8------------------------------------------------------------------|
A|---6-10--8----------------------------------------------------------------------12--|
E|-8----------------------------------------------------------------------------------|

E|-------------------------------5-6-8-----------8--------8--9---------9-------9-|
B|---------------------------6-8---------6----6-----6---6-------8---8----8---8---|
G|---------------------5-7-8----------------7---------7-----------9--------9-----|
D|---------------5-7-8-----------------------------------------------------------|
A|---------5-6-8-----------------------------------------------------------------|
E|-6-----8-----------------------------------------------------------------------|

-10----------10----------10--|
----10----10----10----10-----|
-------10----------10--------|
-----------------------------|
-----------------------------|
-----------------------------|


E|-11----------------11--------13-12-11-10h11p10----------------|
B|----11----------11----11--------------------------------------|
G|-------12----12----------12---------------------10-9-8-7h8p7--|
D|----------13--------------------------------------------------|
A|--------------------------------------------------------------|
E|--------------------------------------------------------------|

E|---------------------------------------------------------------------------------------------------|
B|---------------------------------------------------------------------------------------------------|
G|------------------5/7--5h7p5-----------------------------------------------------------------------|
D|----------------5--------------7-5-4--5--7--8--8h10--8h10p8-7--------------------------------------|
A|-7-5-4--5--7--8-------------------------------------------------8---8----8-------------------------|
E|----------------------------------------------------------------------10-----8/10--10\8----5/6--5--|

  Repeat Main Riff 1 (2:09)

  Repeat Main Riff 2 (2:39)

  INTERLUDE 2 (3:08)

E|-------------------------------------------------------8-----------------|
B|-6/8-----------------------8-10--11--8----8-------8-10---11--11-10-10----|
G|-----9---7/9--7-7---7-9-10-------------10----9-10----------------------9-|
D|-------7-----------------------------------------------------------------|
A|-------------------------------------------------------------------------|
E|-------------------------------------------------------------------------|

--8-10-----------------------------|
-------10--8---8----------8-10-----|
-----------------10-10-9--------7--|
-----------------------------------|
-----------------------------------|
-----------------------------------|

                                     |--Very fast--|                |-Very Fast----------------------|
E|---------------------------------------------------------------------------------------------------|
B|---------------------------------------------------------------------------------------------------|
G|-7-9-----------------------------------------------------------------------------7/10--9-----------|
D|-----10-7-8--7--5--5---------------------------------------------------------------------10/12-12--|
A|-----------------------7-8-10-8-10-11---12--10--8-8---5-7-8-7-8-9---10--8--7-----------------------|
E|---------------------------------------------------------------------------------------------------|

E|------------------------------------------------------------8-10-----------------------|
B|------------8-------8---------------------------8-8/10-----------10--------------------|
G|-----7-9-10------10---9-10-7------7-9-10-7-9-10--------9---------------5-7-------------|
D|-7-8---------------------------10------------------------------------------5-----------|
A|--------------------------------------------------------------------------------5-7----|
E|------------------------------------------------------------------------------------5--|

                                                    |---Very Fast--------------------|
E|---------------------------5-6-8-10--8-------------------------------8-------------|
B|-----------------5---5-6-8--------------11--10----8-10-11-10-11-12------11-10-8----|
G|-------------6-7---7---------------------------------------------------------------|
D|-------5-7-8-----------------------------------------------------------------------|
A|-5-7-8-----------------------------------------------------------------------------|
E|-----------------------------------------------------------------------------------|
   * * * * * * * * * * * * * * * *


E|--------------------------------------------------|
B|---------5/6-6/8-8--8-10--8h10p8------------------|
G|-----6-7-------------------------10---10h12p10\9--|
D|-5-7----------------------------------------------|
A|--------------------------------------------------|
E|--------------------------------------------------|

  Repeat Main Riff 1 (3:41)

  Repeat Main Riff 2, but when you get to the end of the riff, play this. The difference 
is there are three new notes, the 13/17 and 15.
  The rhythm is also slighty different, so listen to the song and you'll get it. (4:11)

E|------------------------------------12-10--10/13--12-15-13-13/17-15-9--|
B|-----------------------------------------------------------------------|
G|-10-9-7----7-9-10-7---9-10-9---9-10------------------------------------|
D|-----------------------------------------------------------------------|
A|-----------------------------------------------------------------------|
E|-----------------------------------------------------------------------|

  Repeat Main Riff 1 (4:41)

  Repeat Main Riff 2. It's different again, but this time the difference is in the 
beginning. Again, listen to the song and you'll get the
  rhythm down in no time. (5:11)

E|----------------------------------------------|
B|----------8------------8----------------------|
G|-7-9-10-7-----7-9-10-7---10-10--9-9-7-9-10-7--|
D|----------------------------------------------|
A|----------------------------------------------|
E|----------------------------------------------|

               |-------------This is where it's different--------------------------------------|
E|---------------------------------------------------------------------------------------------|
B|--------------------------------------------11----------11--10-10-8-8-----8-10---------------|
G|---6-7-9-10--9h10p9--7-9-10-9h10p9--7-9-10------7-9-10-----------------10------9-------------|
D|-7-------------------------------------------------------------------------------10-7--7/10--|
A|---------------------------------------------------------------------------------------------|
E|---------------------------------------------------------------------------------------------|

  The rest of the riff is the same.

  Repeat Riff 1, with two small changes. Here's the whole thing for clarity's sake: (5:40)

                                                |--Extra lick--|
E|--------------------------------------------------------------|
B|----------8------------8--------------------------------------|
G|-7-9-10-7-----7-9-10-7---10-10--9-9-7-9-10-7------------------|
D|----------------------------------------------5h7-5-----------|
A|----------------------------------------------------8-7--8-5--|
E|--------------------------------------------------------------|

E|-----------------------------------------------------------|
B|----------11-----------11--10-10--8-8----8-10--------------|
G|-7-9-10-7-----7-9-10-7----------------10------9------------|
D|------------------------------------------------10-7-7/10--|
A|-----------------------------------------------------------|
E|-----------------------------------------------------------|

                                                          |##|
E|-------------10-12-13--------------9h10p9----------------------------|
B|----------10----------11-11--10-11--------11-10---10-8--7/8----------|
G|-----7/10---------------------------------------9-------------10-10--|
D|-7-0-----------------------------------------------------------------|
A|---------------------------------------------------------------------|
E|---------------------------------------------------------------------|

 ## This 7/8 slide replaces the usual 8h10p8.

  The rest of the riff is the same:

E|---------------------------------------------------------------|
B|---------------------------------------------------------------|
G|-10-9-7----7-9-10-7--9-10-9-------9-7--7/10--9---10/12--10-----|
D|-----------------------------------------------------------11--|
A|------------------------------7-8------------------------------|
E|---------------------------------------------------------------|

That's it! Enjoy this awesome song :)

            
            
Suggest correction
Creating personal tab
Creating personal tab
You can edit any tab online and save it as your Personal.

You can edit, replace or remove any tab part or add personal notes – all changes will be seen only by you.

Personal tabs can be accessed anytime from any device, even offline.
Learn more »
comments
print report bad tab
3 comments total.
0 reply
Adrian0121 52 Mar 06, 2013 10:08 PM

The "very fast" parts in the tab are incorrect. The formatting came out weird when I pasted it to the website. Hopefully you can figure it out, not sure how to edit it at this point.

0 reply
julien007 10 Apr 09, 2013 03:33 AM

this is great man , very good job, thank you for all the efforts

0 reply
Rotenn 50 Sep 08, 2014 03:16 PM

Thank you.

guest
You may want to rate the tab now too:
select rating
Wanna post a correction for this tab? Suggest correction