Oops, an error
Loading. Please wait.

Triveni tab

version 1
version 1

Whole song

Interactive

19,110 views 6 this week
4 commentsread comments
1 2 3 4 5
x 7
add to favorites
×
Save as Personal and add changes to this tab that will be seen only by you. Learn more ›
×
You can save this tab as Personal to edit and correct it or add notes. All changes will be seen only by you. Learn more »
launch autoscroll
font size
0
reset
how to read this tab
guitar tuner
edit
Autoscroll
slow
fast
+/-
esc
set tempo
stop
Rodrigo y Gabriela
Triveni
From their album "11:11"

Standard tuning

I didn't tab rhythms exactly or times played, but I did note transitions. It's really 
that hard of a song, but very fun to play!

Intro

e|--12----------------------------------11------------------|
B|-----12--------13--10-12-----10-11-12----12--101210-------|
G|--------12--9------------11-------------------------12-9--|
D|----------------------------------------------------------|
A|----------------------------------------------------------|
E|----------------------------------------------------------|

e|-----7-10-9-8-7-676-----------------------|
B|---8----------------7------7-10-8---7-----|
G|-9-----------------------8--------8---9---|
D|-----------------------9------------------|
A|------------------------------------------|
E|------------------------------------------|

e|-12-12---------------------------------11--------------------|
B|------12--------13--10-12-----10-11-12----12-10--------------|
G|---------12--9------------11--------------------12-11-10-9---|
D|-------------------------------------------------------------|
A|-------------------------------------------------------------|
E|-------------------------------------------------------------|

e|-----7-10-9-8----8-787-------------------------|
B|---8----------10-------7------7-10-8---7-------|
G|-9--------------------------8--------8------9--|
D|--------------------------9--------------------|
A|-----------------------------------------------|
E|-----------------------------------------------|

Repeat Intro section

e|---------|----------------------------------|
B|---------|---------------------------0------|
G|---------|-------------------------0--------|
D|--9------|------9-898-------7---------------|
A|----10-9-|-7-10-------9-------10-7----------|
E|---------|--------------8-7-----------------|

e|-----------------------------0-----------|
B|---------------------------0-------------|
G|-------------------------0---------------|
D|------9-898-------7----------------------|
A|-7-10-------9-------10-7-----------------|
E|--------------8-7------------------------|

e|--------------------------------|---------------------------|
B|---------------------------0----|---------------------------|
G|-------------------------0------|---------------------------|
D|------9-898-------7-------------|---------------------------|
A|-7-10-------9-------10-7--------|-7-7-8-9-676-------10-9-7--|
E|--------------8-7---------------|--------------8-7----------|

Repeat intro

  Sleazy riff
e|--------------------------------------------|
B|--------------------------------------------|
G|--------------------------------------------|
D|--------------------------------------------|
A|--5h7-x-7-x-7-5h7-x-7-x-7-5h7-----------7---|
E|------------------------------5h7-3h5-0-----|

  Chords behind that riff (I’m pretty sure this is it till the last time)
e|-0----0---0---0-----------------------------|
B|-0----0---0---0-----------------------------|
G|-0----3---2---0-----------------------------|
D|-2----4---3---2-----------------------------|
A|-2----4---3---2-----------------------------|
E|-0----0---0---0-----------------------------|

                                        End on
e|--------------------------------------|-----|
B|--------------------------------------|-----|
G|---5--5-----7--7------9--7-----9--7---|---7-| Repeat
D|--7--7--7--7--7--7---7--7--7--7--7--7-|--7--|
A|-0--0--0--0--0--0---9--9--9--9--9--9--|-9---|
E|--------------------------------------|-----|


e|----------------------------------------|
B|--12-12----------------101210-----------|
G|--------11-11--9-11-12--------12-11-----|
D|----------------------------------------|
A|----------------------------------------|
E|----------------------------------------|

e|----------------------------------------|
B|--12-----------7-10-8-7-----------------|
G|-----11-797---7-------------------------|
D|-------------9--------------------------|
A|----------------------------------------|
E|----------------------------------------|

e|----------------------------------------|
B|--12-12----------------101210-----------|
G|--------11-11--9-11-12--------12-11-----|
D|----------------------------------------|
A|----------------------------------------|
E|----------------------------------------|

e|----------------------------------------|
B|-----------88-8--10---------------------|
G|--9-7---7-----------9-7-----------------|
D|------9---------------------------------|
A|----------------------------------------|
E|----------------------------------------|


e|------------------|--------------------------------|
B|------------------|--------------------------------|
G|-7--9-797--9--7-9-|--11--12--111211--12--11-12-----|
D|------------------|--------------------------------|
A|------------------|--------------------------------|
E|------------------|--------------------------------|

e|--0-0-0-0-0-0-0-0-0---------------------|
B|----------------------------------------|
G|-4-5-4-5-4-5-7-5-4----------------------|
D|----------------------------------------|
A|----------------------------------------|
E|----------------------------------------|


e|--0-0-0-0---0--0--0--0--0--0------------|
B|----------------------------------------| And so on..
G|-7-9-7-9--11-12-11-12-14-12-------------|
D|----------------------------------------|
A|----------------------------------------|
E|----------------------------------------|

e|--0-0-0-0---0--0--0--0------------------|
B|----------------------------------------|
G|-4-4-4-4--11-11-11-11-------------------|
D|----------------------------------------|
A|----------------------------------------|
E|----------------------------------------|

  Jam these chords
e|-12--11--11--12-------------------------|
B|-12--12--10--12-------------------------|
G|-12--11--11--12-------------------------|
D|----------------------------------------|
A|----------------------------------------|
E|----------------------------------------|


e|------------------------------------------|
B|-------12-10------------------------------|
G|----11-------11-8-------------------------|
D|---9-------------10----9-7----------------|
A|----------------------9---9-6-----6-9-----|
E|---------------------7--------8-7---------|


e|----------------------------------|
B|---------------------------0------|
G|-------------------------0--------|
D|------9-898-------7---------------|
A|-7-10-------9-------10-7----------|
E|--------------8-7-----------------|

e|-----------------------------0-----------|
B|---------------------------0-------------|
G|-------------------------0---------------|
D|------9-898-------7----------------------|
A|-7-10-------9-------10-7-----------------|
E|--------------8-7------------------------|

e|--------------------------------|---------------------------|
B|---------------------------0----|---------------------------|
G|-------------------------0------|---------------------------|
D|------9-898-------7-------------|---------------------------|
A|-7-10-------9-------10-7-------7|-7-7-8-9-676-------10-9-7--|
E|--------------8-7---------------|--------------8-7----------|


e|---0----------------------------0---0----|
B|--8----------------------------8---8-----|
G|-9--8-9-898---8-11-8---8-11-8-9---9------|
D|------------9--------9-------------------|
A|-----------------------------------------|
E|-----------------------------------------|

Then back to the intro part.

            
            
Suggest correction
Creating personal tab
Creating personal tab
You can edit any tab online and save it as your Personal.

You can edit, replace or remove any tab part or add personal notes – all changes will be seen only by you.

Personal tabs can be accessed anytime from any device, even offline.
Learn more »
comments
print report bad tab
4 comments total. Showing first comments.
+3 reply
$hab 687 Aug 03, 2010 10:17 AM

Thanks for the tab. For the bit that says "This part is more than likely wrong", Rodrigo plays this:

----------------------------------------------
--------12-10---------------------------------
-----11-------11------------------------------
---9-------------13-10------9-7---------------
--------------------------9-----9-6-----6-9---
------------------------7----------8--7-------

0 reply
ehvuillequez 17 Oct 15, 2017 07:08 AM

I've submitted a correction, but forgot to add chords from second part (thanks for the first chords on the sleezy riff, my gf had some trouble to retrieve them ), so here they are :

5---------------|5---------------|7---------------|7---------------
5---------------|7---------------|7---------------|7---------------
5---------------|5---------------|9---------------|7---------------
5---------------|5---------------|7---------------|7---------------
7---------------|7---------------|9---------------|9---------------
5---------------|5---------------|7---------------|7---------------

0 reply
ehvuillequez 17 Oct 15, 2017 07:12 AM

Or may be that would sound more accurate :

5---------------|5---------------|----------------|----------------
5---------------|7---------------|(10)------------|10--------------
5---------------|5---------------|9---------------|7---------------
5---------------|5---------------|7---------------|7---------------
7---------------|7---------------|9---------------|9---------------
5---------------|5---------------|7---------------|7---------------

guest
You may want to rate the tab now too:
select rating
Wanna post a correction for this tab? Suggest correction