Oops, an error
Loading. Please wait.

Vikingman tab

version 2
version 2

Whole song

Interactive

30,484 views 39 this week
8 commentsread comments
1 2 3 4 5
x 10
add to favorites
×
Save as Personal and add changes to this tab that will be seen only by you. Learn more ›
×
You can save this tab as Personal to edit and correct it or add notes. All changes will be seen only by you. Learn more »
launch autoscroll
font size
0
reset
how to read this tab
guitar tuner
edit
Autoscroll
slow
fast
+/-
esc
set tempo
stop
-------------------------------------------------------------------------------
                             VIKINGMAN - Rodrigo Y Gabriela
-------------------------------------------------------------------------------
Tabbed by: TomleHat
Email: thom25j@yahoo.co.uk

Correction by Emile-Henry VUILLEQUEZ 2017/10/15
Email : doktor_haze [_AT$] yahoo [$DOT_] fr

Tuning: Standard

Beast of a song, but seeing as I'm off college now it only took about 7
days to tab and learn (apart from the crazy part), unlike Diablo Rojo 
which took about 7 months on and off to do!

0:00
e|--------------------------------|
B|-----------6-5-----------8-6-5--|
G|-------7-------6-------6-------6|
D|-5-----------------7------------| x3
A|--------------------------------|
E|--------------------------------|

e|-------------------------5------|
B|-----------6-5--------5---------|
G|-------7-------6----6-----------|
D|-5----------------7-------------|
A|--------------------------------|
E|--------------------------------|


0:15
e|---------------------------------------------------------------------|
B|-6-------6-8-6-----5-----------5-----6-------6-8-6----8/10-9-8-7-6-5-|
G|---7---7-------------6-------6---------7---7-------------------------|
D|-----8-----------------7-5-7-------------8---------------------------|
A|---------------------------------------------------------------------|
E|---------------------------------------------------------------------|

e|------------------------------------------------------------------|
B|-6-------6-8-6-----5-----------5-----6-------6-8-6----5-----------|
G|---7---7-------------6-------6---------7---7-------------6--------|
D|-----8-----------------7-5-7-------------8------------------8--7b-|
A|------------------------------------------------------------------|
E|------------------------------------------------------------------|

0:27
e|-----------------------------------------------------------------------|
B|-----6-5h6p5-------------6-5h6p5-------------6-5-----8--------8-6--5---|
G|---7---------7---------7---------7---------7-----7----------6--------7-|
D|-7-------------7-----7-------------8-----7----------------7------------| x2
A|-----------------------------------------------------------------------|
E|-----------------------------------------------------------------------|

e|-5-----5h6p5---------5-----5-4-3-----3---------3-6-5-3-----3h5p3-----|
B|---6---------6---------6---------------5-----5---------6-5-------6-6-|
G|-----7---------7---------7---------------6-6-------------------------|
D|---------------------------------------------------------------------|
A|---------------------------------------------------------------------|
E|---------------------------------------------------------------------|

e|-5-----5h6p5---------5-----3-5-3h5p3--3---------3-6-5-3-------|
B|---6---------6---------6----------------5-----5---------6-5-3-|
G|-----7---------7---------7----------------6-6-----------------|
D|--------------------------------------------------------------|
A|--------------------------------------------------------------|
E|--------------------------------------------------------------|

e|-----------------------------------------------------------------------|
B|-----6-5h6p5-------------6-5h6p5-------------6-5-----8--------8-6--5---|
G|---7---------7---------7---------7---------7-----7----------6--------7-|
D|-7-------------7-----7-------------8-----7----------------7------------|
A|-----------------------------------------------------------------------|
E|-----------------------------------------------------------------------|

e|---------------------------------------------------------------------------|
B|-----6-5h6p5-------------6-5h6p5-------------6-5-----8--------8-6--5-------|
G|---7---------7---------7---------7---------7-----7----------6--------7/9-7-|
D|-7-------------7-----7-------------8-----7----------------7----------------| 
A|---------------------------------------------------------------------------|
E|---------------------------------------------------------------------------|

0:58
e|-------10-------12--------------8-----10------------8------9--------------10-------12-------|
B|----10-------10----10---------8-----8----8--------8-----8----8---------10-------10----10----|
G|-10-------10----------10----9-----9--------9----9-----9--------9----10-------10----------10-|
D|--------------------------------------------------------------------------------------------|
A|--------------------------------------------------------------------------------------------|
E|--------------------------------------------------------------------------------------------|

e|-------10-------12--------------8-----10------------8------9--------------10-------10-------|
B|----10-------10----10---------8-----8----8--------8-----8----8---------10-------10----10----|
G|-10-------10----------10----9-----9--------9----9-----9--------9----10-------10----------10-|
D|--------------------------------------------------------------------------------------------|
A|--------------------------------------------------------------------------------------------|
E|--------------------------------------------------------------------------------------------|

e|----------10--------------------8---------------------9----------------------10----------|
B|-------10----10---------------8---8---------------10----10----------------10----10-------|
G|----10----------10----------9-------9-----------9-----------9----------10----------10----|
D|-12-----------------11---10-----------10----11----------------11----12----------------12-|
A|-----------------------------------------------------------------------------------------|
E|-----------------------------------------------------------------------------------------|

e|----------10--------------------8---------------------9-------------------------10-|
B|-------10----10---------------8---8---------------10----10------------------10-----|
G|----10----------10----------9-------9----------9-----------9------------10---------|
D|-12-----------------11---10-----------10----11----------------11----12-------------|
A|-----------------------------------------------------------------------------------|
E|-----------------------------------------------------------------------------------|

1:18
e|-8-------8-10-8------------------------9---------9-12-10-9-10----------10-13-12-10-|
B|---8---8--------8-11-10-8----------10----10---10--------------10----10-------------|
G|-----9--------------------10----10----------9--------------------10----------------|
D|-----------------------------12----------------------------------------------------|
A|-----------------------------------------------------------------------------------|
E|-----------------------------------------------------------------------------------|

e|-8-------8-10-8---------------------------9---------9-12-10-9---10----------10-13-12-10-|
B|---8---8--------8-11-10----10---------10----10---10----------------10----10-------------|
G|-----9------------------12---10----10----------9----------------------10----------------|
D|--------------------------------12------------------------------------------------------|
A|----------------------------------------------------------------------------------------|
E|----------------------------------------------------------------------------------------|

e|-8-------8-10-8---------------------------9---------9-12-10-9---10-----------------------|
B|---8---8--------8-11-10----10---------10----10---10----------------10---10---------------|
G|-----9------------------12---10----10----------9---------------------------7---7---------|
D|--------------------------------12-----------------------------------------------7---7---|
A|---------------------------------------------------------------------------------------5-|
E|-----------------------------------------------------------------------------------------|


1:30
e|-----------------------------------------------------------------------|
B|-----6-5h6p5-------------6-5h6p5-------------6-5-----8--------8-6--5---|
G|---7---------7---------7---------7---------7-----7----------6--------7-|
D|-7-------------7-----7-------------8-----7----------------7------------| x2
A|-----------------------------------------------------------------------|
E|-----------------------------------------------------------------------|

e|-5-----5h6p5---------5-----5-4-3-----3---------3-6-5-3-----3h5p3-----|
B|---6---------6---------6---------------5-----5---------6-5-------6-6-|
G|-----7---------7---------7---------------6-6-------------------------|
D|---------------------------------------------------------------------|
A|---------------------------------------------------------------------|
E|---------------------------------------------------------------------|

e|-5-----5h6p5---------5-----8-6-5----6-5------------6-5---------------|
B|---6---------6---------6---------8------8-5----5-8-----8-6-5-5h6p5---|
G|-----7---------7---------7-------------------6---------------------7-|
D|---------------------------------------------------------------------|
A|---------------------------------------------------------------------|
E|---------------------------------------------------------------------|

1:51
e|-----------------------------------------------------------------------|
B|-----6-5h6p5-------------6-5h6p5-------------6-5-----8--------8-6--5---|
G|---7---------7---------7---------7---------7-----7----------6--------7-|
D|-7-------------7-----7-------------8-----7----------------7------------|
A|-----------------------------------------------------------------------|
E|-----------------------------------------------------------------------|

e|---------------------5-6-5-------------8-10-12-10h12p10-----9-10-12-10-13-12-10-|
B|-----6-5h6p5---5-6-8-----------8-10-11------------------------------------------|
G|---7---------7------------------------------------------------------------------|
D|-7------------------------------------------------------------------------------|
A|--------------------------------------------------------------------------------|
E|--------------------------------------------------------------------------------|

Warm your fingers up for this bit - its about 500BPM! I'm still doing it at 70% speed.
It's easier to use pull offs to get roughly the right sound.

2:03
e|--------------------------------|--------------------------------|
B|--------------------------------|--------------------------------|
G|--------------------------------|--------------------------------|
D|--------------------------------|--------------------------------|
A|-3-2-0-5-3-0-3-2-0-5-3-0-3-2-0-2|-3-2-0-5-3-0-3-2-0-5-3-0-2-0-2-0|
E|--------------------------------|--------------------------------|

e|--------------------------------|--------------------------------|
B|--------------------------------|--------------------------------|
G|--------------------------------|--------------------------------|
D|--------------------------------|--------------------------------|
A|-3-2-0-5-3-0-3-2-0-5-3-0-3-2-0-2|-3-2-0-5-3-0-7-5-0-5-3-0-3-2-0-2|
E|--------------------------------|--------------------------------|

e|--------------------------------|--------------------------------|
B|--------------------------------|--------------------------------|
G|--------------------------------|--------------------------------|
D|--------------------------------|--------------------------------|
A|-3-2-0-5-3-0-3-2-0-5-3-0-3-2-0-2|-3-2-0-5-3-0-3-2-0-5-3-0-2-0-2-0|
E|--------------------------------|--------------------------------|

e|--------------------------------|-----------------------------------|
B|--------------------------------|-----------------------------------|
G|--------------------------------|-----------------------------------|
D|--------------------------------|-----------------------------------|
A|-3-2-0-5-3-0-3-2-0-5-3-0-3-2-0-2|-3-2-0-5-3-0-7-5-0-10-7-0-10-7-0---|
E|--------------------------------|-----------------------------------|

e|-------------------------------------------|------------------------------------------|
B|-------------------------------------------|------------------------------------------|
G|-------------------------------------------|------------------------------------------|
D|-------------------------------------------|------------------------------------------|
A|-15-14-0-17-15-0-15-14-0-17-15-0-15-14-0-14|-15-14-0-17-15-0-15-14-0-17-15-0-14-0-14-0|
E|-------------------------------------------|------------------------------------------|

e|-------------------------------------------|-------------------------------------------|
B|-------------------------------------------|-------------------------------------------|
G|-------------------------------------------|-------------------------------------------|
D|-------------------------------------------|-------------------------------------------|
A|-15-14-0-17-15-0-15-14-0-17-15-0-15-14-0-14|-15-14-0-17-15-0-19-17-0-17-15-0-15-14-0-14|
E|-------------------------------------------|-------------------------------------------|

e|-------------------------------------------|------------------------------------------|
B|-------------------------------------------|------------------------------------------|
G|-------------------------------------------|------------------------------------------|
D|-------------------------------------------|------------------------------------------|
A|-15-14-0-17-15-0-15-14-0-17-15-0-15-14-0-14|-15-14-0-17-15-0-15-14-0-17-15-0-14-0-14-0|
E|-------------------------------------------|------------------------------------------|

e|-------------------------------------------|---------------------------------------|
B|-------------------------------------------|---------------------------------------|
G|-------------------------------------------|---------------------------------------|
D|-------------------------------------------|---------------------------------------|
A|-15-14-0-17-15-0-15-14-0-17-15-0-15-14-0-14|-15-14-0-14-12-0-12-10-0-10-7-0-7-5-0-5|
E|-------------------------------------------|---------------------------------------|

2:33
e|-----------------------------------------------------------------------------|
B|---------6--------------5--------5------------------6---3/5------------------|
G|---7-5h7--------7-5----------------------7--------6---6-----7----------------|
D|--------------------7-6------7-6---7-6-5------5-7----------------7h8-7-5-----| x2
A|-5---------5-------------------------------------------------------------8-7-|
E|-----------------------------------------------------------------------------|

2:47
e|-5-5----------------7-7----------------6-6----------------5-5---------------|
B|-6-6----------------9-9----------------6-6----------------5-5---------------|
G|-7-7-7-7-------7-7--9-9-7-7-------7-7--7-7-7-7-------7-7--6-6-7-7-------7-7-|
D|-7-7-----7-7-7------9-9-----7-7-7------8-8-----7-7-7------7-7-----7-7-7-----|
A|-5-5----------------7-7----------------8-8----------------7-7---------------|
E|---------------------------------------6-6----------------5-5---------------|

e|-5-5----------------7-7----------------6-6----------------5-5-5-5-5-5-5-5-5-5-5-|
B|-6-6----------------9-9----------------6-6----------------5-5-5-5-5-5-5-5-5-5-5-|
G|-7-7-7-7-------7-7--9-9-7-7-------7-7--7-7-7-7-------7-7--6-6-6-6-6-6-6-6-6-6-6-|
D|-7-7-----7-7-7------9-9-----7-7-7------8-8-----7-7-7------7-7-7-7-7-7-7-7-7-7-7-|
A|-5-5----------------7-7----------------8-8----------------7-7-7-7-7-7-7-7-7-7-7-|
E|---------------------------------------6-6----------------5-5-5-5-5-5-5-5-5-5-5-|

3:02
e|----------------------------|
B|----------------------------|
G|-+7-+7-------+7-+7-+7-------|
D|-------+7-+7----------+7-+7-| x8
A|----------------------------|
E|----------------------------|

I do this next part by finger picking because I can't use a plectrum this fast; 
could you leave a comment if you think it is worth learning with a plectrum or not.

3:17
e|-----5-----5-----5-----5----------4-----4-----4-----4---|
B|---6-----6-----6-----6----------5-----5-----5-----5-----|
G|-7-----7-----7-----7-----7----7-----7-----7-----7-----7-|
D|--------------------------------------------------------|
A|--------------------------------------------------------|
E|--------------------------------------------------------|

e|-----------------------------------5-----5-----5-----5---|
B|-----6-----6------5-----5--------6-----6-----6-----6-----|
G|---7-----7------6-----6--------7-----6-----5-----4-----4-|
D|-8-----8------7-----7-----7------------------------------|
A|---------------------------------------------------------|
E|---------------------------------------------------------|

e|-----5-----5-----5-----5----------4-----4-----4-----4---|
B|---6-----6-----6-----6----------5-----5-----5-----5-----|
G|-7-----7-----7-----7-----7----7-----7-----7-----7-----7-|
D|--------------------------------------------------------|
A|--------------------------------------------------------|
E|--------------------------------------------------------|

e|-----------------------------------5-----5-----5-----5---|
B|-----6-----6------5-----5--------6-----6-----6-----6-----|
G|---7-----7------6-----6--------7-----6-----5-----4-----4-|
D|-8-----8------7-----7-----7------------------------------|
A|---------------------------------------------------------|
E|---------------------------------------------------------|

3:32
e|------------------------------------------------|
B|---------------------------8-----------8--------|
G|-7-9-7-----9/10-9-10-9---7---10-9-10-7---10-b8--|
D|-------7----------------------------------------|
A|------------------------------------------------|
E|------------------------------------------------|

e|-----------------------------------------------8----|
B|-------------------------------8-------------8---10-|
G|-7-9-7h9p7-----9h10-9-10-9---7---10-9-10-7-9--------|
D|-----------7----------------------------------------|
A|----------------------------------------------------|
E|----------------------------------------------------|

e|-12---9-------9-------9-------9-------9-------9-------10h12-10----------------------------|
B|-10-----10------10------10------10------10------10-------------10-------------------------|
G|-10--------10------10------10------10------10------10-------------10h12-10-------------10-|
D|-12------------------------------------------------------------------------14-12h14p12----|
A|(12)--------------------------------------------------------------------------------------|
E|(12)--------------------------------------------------------------------------------------|


| /  slide up
| \  slide down
| h  hammer-on
| p  pull-off
| b  bend note
| +  harmonic

===============================================================================

            
            
Suggest correction
Creating personal tab
Creating personal tab
You can edit any tab online and save it as your Personal.

You can edit, replace or remove any tab part or add personal notes – all changes will be seen only by you.

Personal tabs can be accessed anytime from any device, even offline.
Learn more »
comments
print report bad tab
8 comments total. Showing first comments.
0 reply
exmorbid 41 Jan 21, 2010 03:08 PM

this tab is awesomenss 5*
i finger that riff too ;)

+1 reply
draggss 10 Apr 14, 2010 11:26 AM

Many riffs ar wrong !

+1 reply
draggss 10 Apr 14, 2010 11:30 AM

e|----------10--------------------8--------------------9-----------------------10----------|
B|-------10----10---------------8---8---------------10----10----------------10----10-------|
G|----10----------10----------9-------9----------9-----------9-----------10----------10----|
D|-12-----------------11---10-----------10----11----------------11----12----------------12-|
A|-----------------------------------------------------------------------------------------|
E|-----------------------------------------------------------------------------------------|
For example..

guest
You may want to rate the tab now too:
select rating
Wanna post a correction for this tab? Suggest correction