Oops, an error
Loading. Please wait.
64 views 1 this week
no commentswrite comment
1 2 3 4 5
3 more votes to show rating
add to favorites
×
Save as Personal and add changes to this tab that will be seen only by you. Learn more ›
×
You can save this tab as Personal to edit and correct it or add notes. All changes will be seen only by you. Learn more »
launch autoscroll
font size
0
reset
guitar tuner
edit
Autoscroll
slow
fast
+/-
esc
set tempo
stop
Author
Difficulty
Tabbed by: 6METAL6BASSIST6
E-mail: petergriffinav@gmail.com

Tuning: EADG

G|--|
D|--|
A|--|
E|4-|

G|------------------------------------------------------------------------------------------------|
D|------------------------------------------------------------------------------------------------|
A|4-----4-----4-----4-----4-----4-----4-----4-----4-----4-----4-----4-----4-----4-----4-----4-----|
E|----------------------------------------------4-----------------------------------------------4-|

G|------------------------------------------------------------------------|
D|----------------------------------------------------------------------6-|
A|4-----4-----4-----4-----4-----4-----4-----4-----4-----4-----4-----4-----|
E|----------------------------------------------4-------------------------|

0:14

G|------------6---------6-5-----------5-------5-6-4-----------4---------4-6-----------6---4-------|
D|----------6-------------------------------------------------------------------------------6-----|
A|4-----------------------------------------------------------------------------------------------|
E|------------------------------------------------------------------------------------------------|

G|--------------------6---------------------------------------------------------------------------|
D|4-----------4---------4-3-----------3---------4-1-----------1-----1---/-6-----------6---4-------|
A|------------------------------------------------------------------------------------------6-----|
E|------------------------------------------------------------------------------------------------|

G|------------6-----------------------5---------5-4-----------4-----------6-----------6---4-------|
D|------------------------------------------------------------------------------------------6-----|
A|4---------------------4-3-----------------------------------------------------------------------|
E|------------------------------------------------------------------------------------------------|

G|--------------------6---------------------------------------------------------------------------|
D|4-----------4---------4-3-----------3---------4-1-----------1-----1---/-6-----------6---4-------|
A|------------------------------------------------------------------------------------------6-----|
E|------------------------------------------------------------------------------------------------|

0:46

G|------------------------------------------------------------------------------------------------|
D|------------------------------------------------------------------------------------------------|
A|4-----4-----4-----4-----4-----4-----4-----4---4-------------------------6-----6---6-------------|
E|------------------------------------------------2-----2-----2-----2-----------------4-----4-----|

G|------------------------------------------------------------------------------------------------|
D|------------------------------------------------------------------------------------------------|
A|4-----4-----4-----4-----4-----4-----4-----4-----------------------------6-----6-----------------|
E|----------------------4-------------------------2-----2-----2-----2-----------------4-----4-----|

G|------------------15\---8-----6-----------6-----------------------------------------------------|
D|------------------------------------------------4-----------------------------------------------|
A|------------------------------------------------------4-----4-----4-----4-----4-----4-----4-----|
E|------------------------------------------------------------------------------------------------|

G|------------------------------------------------|
D|------------------------------------------------|
A|2-----2-----2-----2-----2-----2-----2-----2-----|
E|------------------------------------------------|

1:14

G|------------6---------------------5-----5-------------------4---------4-4---------4/6-----4-----|
D|----------------------------------------------------------------------------------------------6-|
A|4---------------------4-3-----------------3---3-2---------2-------------------------------------|
E|------------------------------------------------------------------------------------------------|

G|------------6---------------------------------------------3-----------------8-------------8---\-|
D|4---------4---------6-4-3---------3-3---/-4-----1-----------1-----1---/-6-----6-----6-----------|
A|------------------------------------------------------------------------------------------------|
E|------------------------------------------------------------------------------------------------|

G|6-----------6---------6-5-----------5-------5-6-4-----------4-----------6-----------6---4-------|
D|------------------------------------------------------------------------------------------6-----|
A|----------4-------------------------------------------------------------------------------------|
E|------------------------------------------------------------------------------------------------|

G|----------6-------------------------------------------------------------------------------------|
D|4-----------4-------6-4-3-----------3---/-4-----1-----------1-----1---/-6-----6---6-6---4-------|
A|------------------------------------------------------------------------------------------6-----|
E|------------------------------------------------------------------------------------------------|

1:46

G|------------------------------------------------------------------------------------------------|
D|------------------------------------------------------------------------------------------------| x2
A|4-----4-----4-----4-----4-----4-----4-----4-----------------------------6-----6-----------------|
E|------------------------------------------------2-----2-----2-----2-----------------4-----4-----|

G|------------------15\---8-----6-----------6-----------------------------------------------------|
D|------------------------------------------------4-----------------------------------------------|
A|------------------------------------------------------4-----4-----4-----4-----4-----4-----4-----|
E|------------------------------------------------------------------------------------------------|

G|------------------------------------------------|
D|------------------------------------------------|
A|2-----2-----2-----2-----2-----2-----2-----2-----|
E|------------------------------------------------|

2:13

G|------------------3-----------------------------------------------------------------------------|
D|------------------------1-----------------1---/-6-----6-----6-----6-----6-----6-----6-----6---4-|
A|1---------------------------------------------------------------------6-------------------------|
E|------------------------------------------------------------------------------------------------|

G|------------------------|
D|6-----6-----6---4-------|
A|------------------6-----|
E|------------------------|

2:22

G|------------------------------------------------------------------------------------------------|
D|------------------------------------------------------------------------------------------------|
A|4-----4-----4-----4-----4-----4-----4-----4---4-------------------------6-----6-----------------|
E|------------------------------------------------2-----2-----2-----2-----------------4-----4-----|

G|------------------------------------------------------------------------------------------------|
D|------------------------------------------------------------------------------------------------|
A|4-----4-----4-----4-----4-----4-----4-----4-----------------------------6-----6-----------------|
E|----------------------4-------------------------2-----2-----2-----2-----------------4-----4-----|

G|------------------------------------------------------------------------------------------------|
D|------------------------------------------------------------------------------------------------|
A|4-----4-----4-----4-----4-----4-----4-----4-----------------------------6-----6-----------------|
E|----------------------4-------------------------2-----2-----2-----2-----------------4-----4-----|

G|------------------------------------------------------|
D|------------------------------------------------------| fades out here.
A|4-----4-----4-----4-----4-----4-----4-----4-----------|
E|------------------------------------------------2-----|

            
            
Suggest correction
Creating personal tab
Creating personal tab
You can edit any tab online and save it as your Personal.

You can edit, replace or remove any tab part or add personal notes – all changes will be seen only by you.

Personal tabs can be accessed anytime from any device, even offline.
Learn more »
Give kudos to tab author, rate the tab!
1 2 3 4 5
comments
print report bad tab
guest
You may want to rate the tab now too:
select rating
Wanna post a correction for this tab? Suggest correction